Аккорды «ЖЩ»

Популярные аккорды ЖЩ:
алфавиту | просмотрам | случайно
  • D5                            A#5 
    Это боль всего мира, но мне плевать,
    G5                            E5
    Пусть хоть весь генофонд обратится в пыль.
    D5                            A#5 
    Кто-то лучше, чем люди придёт опять,
    G5…
  • B5    D5
    Впусти в себя добро, убей.
    G5    A#5
    Не наливай, а сразу пей.
    B5    D5
    Не угрожай, а сразу бей.
    G5    A#5
    Не начинай, забей, забей.
    B5    D5
    Уж если мёртвым всё равно -
    G5    A#5
    То мне подавно и давно.
    B5…
  • Main Riff:
    e|--------------------|------------------|----------------|----------|
    B|--------------------|------------------|----------------|----------|
    G|---------9-7-9------|--------9-7-9-----|------9-7-9-----|----------|
    D|-----9-7------9-7-9-|-----9-7-----9-7-5|--9-7------9-7-9|---9-7-5--|
    A|-7-7----------------|---7--------------|-7--------------|-7--------|
    E|--------------------|------------------|----------------|----------|…
  • G         F#
    Мы ждём вас обратно.
       Bm                      D
    Никто в одиночестве не рождался.
         G         F#
    Мы ждём вас обратно.
       Bm                      D
    Хотя я рискую и не дождаться.
         G         F#
    Всё…
  • Intro/Solo:
       Em                 C    Bm                  D
    e|-----------------------|------------------------|
    B|-12-12-12-10-10-10-----|-12-12-12-10-10-10------|
    G|-------------------9-7-|-------------------9-11-|…
  • Main Riff:
    e|--------------------|------------------|----------------|----------|
    B|--------------------|------------------|----------------|----------|
    G|---------9-7-9------|--------9-7-9-----|------9-7-9-----|----------|
    D|-----9-7------9-7-9-|-----9-7-----9-7-5|--9-7------9-7-9|---9-7-5--|
    A|-7-7----------------|---7--------------|-7--------------|-7--------|
    E|--------------------|------------------|----------------|----------|…
  • В конце рифа: 3 струна 3 лад.
    
    F#5 D5
    Он передумал в башку стреляться,
    A5 B5 
    Передумал вообще ширяться,
    F#5 D5
    Колоться, пить, курить, материться,
    A5 B5 
    И снова решил влюбиться.
    F#5 D5
    Возлюбил он жену и дочку,
    A5…
  • G#m E5
    Мрак он тебе друг 
    D#5
    Никак не враг
    G#m E5 D#5
    Он тебя ждёт он тебя помнит
    G#m E5 D#5
    Мрак он встретит нас у райских врат
    G#m
    И будет нам безмерно рад 
    E5 D#5
    А мы ему нет
    F#m
    Он не ругает не нудит 
    D#5
    Не…
  • Intro: Dm F Bb A }x4
    
                  Dm              F
    Что-то в этой жизни пошло не так.
           Bb                    A
    Как я оказался среди пьяных тел?
                Dm            F
    Вроде как я сам себе не враг.…
Наверх