Аккорды «ЖЩ»

Популярные аккорды ЖЩ:
алфавиту | просмотрам | случайно
  • F#m
    Я не запомнил номеров, 
    E
    Я записал и всё забыл. 
    D
    Какой был цвет твоих волос?
    A
    Я помню только едкий дым 
    F#m
    И грязный снег из-под колёс
    E 
    Машин, которые спешат. 
    D
    Пустой проспект, неба свинец 
    A C#m
    И…
  • D5                            A#5 
    Это боль всего мира, но мне плевать,
    G5                            E5
    Пусть хоть весь генофонд обратится в пыль.
    D5                            A#5 
    Кто-то лучше, чем люди придёт опять,
    G5…
  • Intro: Dm F Bb A }x4
    
                  Dm              F
    Что-то в этой жизни пошло не так.
           Bb                    A
    Как я оказался среди пьяных тел?
                Dm            F
    Вроде как я сам себе не враг.…
  • B5    D5
    Впусти в себя добро, убей.
    G5    A#5
    Не наливай, а сразу пей.
    B5    D5
    Не угрожай, а сразу бей.
    G5    A#5
    Не начинай, забей, забей.
    B5    D5
    Уж если мёртвым всё равно -
    G5    A#5
    То мне подавно и давно.
    B5…
  • G#m E5
    Мрак он тебе друг 
    D#5
    Никак не враг
    G#m E5 D#5
    Он тебя ждёт он тебя помнит
    G#m E5 D#5
    Мрак он встретит нас у райских врат
    G#m
    И будет нам безмерно рад 
    E5 D#5
    А мы ему нет
    F#m
    Он не ругает не нудит 
    D#5
    Не…
  • G         F#
    Мы ждём вас обратно.
       Bm                      D
    Никто в одиночестве не рождался.
         G         F#
    Мы ждём вас обратно.
       Bm                      D
    Хотя я рискую и не дождаться.
         G         F#
    Всё…
  • Main Riff:
    e|--------------------|------------------|----------------|----------|
    B|--------------------|------------------|----------------|----------|
    G|---------9-7-9------|--------9-7-9-----|------9-7-9-----|----------|
    D|-----9-7------9-7-9-|-----9-7-----9-7-5|--9-7------9-7-9|---9-7-5--|
    A|-7-7----------------|---7--------------|-7--------------|-7--------|
    E|--------------------|------------------|----------------|----------|…
  • В конце рифа: 3 струна 3 лад.
    
    F#5 D5
    Он передумал в башку стреляться,
    A5 B5 
    Передумал вообще ширяться,
    F#5 D5
    Колоться, пить, курить, материться,
    A5 B5 
    И снова решил влюбиться.
    F#5 D5
    Возлюбил он жену и дочку,
    A5…
  • Intro/Solo:
       Em                 C    Bm                  D
    e|-----------------------|------------------------|
    B|-12-12-12-10-10-10-----|-12-12-12-10-10-10------|
    G|-------------------9-7-|-------------------9-11-|…
  • Main Riff:
    e|--------------------|------------------|----------------|----------|
    B|--------------------|------------------|----------------|----------|
    G|---------9-7-9------|--------9-7-9-----|------9-7-9-----|----------|
    D|-----9-7------9-7-9-|-----9-7-----9-7-5|--9-7------9-7-9|---9-7-5--|
    A|-7-7----------------|---7--------------|-7--------------|-7--------|
    E|--------------------|------------------|----------------|----------|…
  • B5
    Сегодня под крышами будет громко,
      D5
    И я бы пришёл, но меня не звали.
     G5
    Мы тоже когда-то друг друга знали,
    
     A5
    Сегодня твой танец - танго с колонкой.
    
       B5
    Сегодня ты еле дойдёшь до дома,
      G5
    А мне…
  • B5
    Мне не нужен адрес,
                      D5
    Только вспомни ее имя.
                 G5
    Если ты не помнишь,
                       E5
    Зачем тратишь мое время?
             B5
    Ты ещё стоишь,
                         D5
    Ты все надеешься…
  • C              B7 
    Я очень много хотел сделать,
    Em              G 
    Но я не делал, смотрел в стены.
    C              B7 
    Стены так громко кричат: "Хватит!
    Em              G
    Остановись, полежи в кровати."
    
    C…
  • Intro:
    |----------------------------------------------------------------|
    |----------------------------------------------------------------|
    |----------------------------------------------------------------|
    |----0-----0---0-----0----3-2---0-----0-----0---0-----0-----0---0|
    |2-2---2-2---2---0-0---0------0----------------------------------|
    |---------------------------------3-3---3-3---3---2-2---2-2---2--|…
  • Рифак:
    
    E|-----------------|-----------------|-----------------|-----------------|
    B|-----------------|-----------------|-----------------|-----------------|
    G|----------4------|----------4------|----------2------|----------0------|
    D|------4-----4---4|------4-----4---2|------2-----2---0|------4-----4---0|
    A|-2------2-----2--|-----------------|-----------------|-----------------|
    E|-----------------|-3------3-----3--|-0------0-----0--|-2------2-----2--|…
  • Припев: 
               Dm(V)
    Пусть люди запомнят меня таким.
            Am(V)
    Я знаю: ты тоже боишься жить.
           F
    Когда-нибудь снова придётся сгинуть,
              Am(V)
    Увидимся там, где не будет нас.
                Dm(V)
    Ну…
  • Bm 
    Сердце не выскочит из груди,
                   G
    Глаза не вывалятся из орбит.
                  D
    Самое страшное - впереди,
                  F#
    Кто-то о ком-то так горько скорбит.
                    Bm
    Завтра не надо, завтра…
  • G                      
    Где был мой друг, когда мне было плохо
    A 
    Больно изнутри?
                C
    Когда не мог я даже сделать вдоха
    B
    И заговорить?
                   G
    Где был мой друг, и почему он бросил
    A
    В трудный…
  • G5
    Когда я умру - не плачь
               D#5
    Когда я уйду - не жди, забудь
               C5
    Хотя это просто фальшь
           A#5            A5
    Я знаю - ты будешь, я тоже жду
    
               G5
    Когда ты умрёшь, то я буду знать,…
  • Bm           G            A
      Смотри в розеточный пейзаж,
               F#           Bm
    Сведённый пальцами с петлёй.
               G            A
    Смотри на горло разных жажд,
           F#           Bm
    Их утоляет сгусток вольт…
  • F#5                A5
    Чердаки и подвалы в темноте и пыли,
           D5                    B5
    И, если бы не копы, то мы бы тут жили.
        F#5            A5
    Но самое светлое место в душе
        D5              B5
    У тебя кем-то…
  • Bm
    Крепким словом брал
      A                G F#
    И делом подтверждал.
             Bm           A
    И в глазах горел огонь 
               G F#
    Жилых домов.
             Bm            A         F# E D A
    Не страшны ему ни голод,…
  • B5
    Нас чопы поймают и будут пинать,
    C#5                C5
    Ещё веселей, если вызвать ментов.
         B5
    Тебя у меня никому не отнять -
      C#5               C5
    Я даже подохнуть за это готов.
       B5
    И это не свет, а смертельный…
  • Am          Em
    Не проснуться, не уснуть.
           F
    Я бы просто хотел уйти
            E
    И не вернуться – взорван путь.
           Am         
    Не проснуться, не уснуть,
           Em
    Не проснуться, не уснуть,
           F    E
    Не…
  • Dm                     F
    Давай уйдем - разберутся без нас
               C                 Am
    Полетим на Алтай и махнем на Кавказ
                Dm                 F
    Нас встретит май на карельской скале
                    C…
  • F                Dm
    Мне стало дурно, когда резко вспомнил
    Am             G(III)
    Всё, что натворил.
    F                Dm
    Мне стало душно, стало мерзко, больно -
    Am        G(III)
    Я почти забыл
    F            Dm
    Воспоминания…
  • Вступление 
    1: --77--77--77--88--77--77--77------------
    2: 55--55--55--------------------77--88--77
    3: --------------------55--55--44----------
    
    Em
    Болезни надо лечить
    Em
    Уроки надо учить ( о-у-е-е!)
    Cmaj7
    О смерти…
  • Основной рифф:
    e|-----------------|-----------------|-----------------|-----------------|
    B|-----------------|-----------------|-----------------|-----------------|
    G|-----------------|-------------6---|-----------------|-----------------|
    D|-----6-6-9-9-9-9-|-----6-6-9-9---9-|---------9---9---|---------8---8---|
    A|-6-6-------------|-6-6-------------|-7-7-7-7---7---7-|-6-6-6-6---6---6-|
    E|-----------------|-----------------|-----------------|-----------------|…
  • Вступление: C5 Eb5 D5 Eb5 D5 Eb5 D5
    
    Куплет 1:
              C5                 Bb5
    Проявил смелость - правильно сделал.
             Eb5                  D5
    Проявил слабость - проглотил, схавал.
            Eb5…
  • Вступление:
    1)---------------------------------------------------------------
    2)---------------------------------------------------------------
    3)---------------------------------------------------------------
    4)-------6----------------6---------------6-----7--6--4----------
    5)---4-----4---7-----4------4---6-----4-----4------------6--7----
    6)---------------------------------------------------------------
    
    C#5…
  • [Куплет 1]:
              F             E 
    В первый день нас было мало
           Am             C
    На второй совсем не стало 
              F             E 
    В третий день из крови реки 
        Am           C
    Фонари, дома, аптеки…
  • Gm            A
    Кто-то не ушёл -
            Dm
    И не надо.
    Bb            Gm    F    A
    За углом ждёт засада.
    
    Gm                  A
    Прятаться нету смысла,
          Dm
    И время,
    Bb                  Gm
    Время идёт так быстро,…
  • ---------------
    ---------------
    -----------4---3-
    ---------------
    --1----1-3--3-2-2---
    -0--0-0-0---------
    и так до слов "Http и Fm",
    Вообще всю песню, можно играть на таких аккордах:
    
    Em(#11)   Gadd11(no5)/C…
  • [Вступление]: Em C G D -2p
      
       Em        C         G  D
    На улице жара была вчера.
       Em            C           G    D 
    Сегодня кожу жжёт проклятый лёд.
          Em             C            G      D
    Все вмёрзли час…
  • Asus2           C         Cadd9            Em
    Забираюсь всё выше проверить, не ловит ли связь.
    Asus2           C         Cadd9            Em
    И не думаешь даже, что можешь отсюда упасть.
    Asus2           C         Cadd9…
  • E|-------------------------------
    B|-------------------------------
    G|-------------------------------
    D|-12-10-7-5---------------------
    A|-------------------------------
    E|-----------5--5--8-7-6-5--5--5-
    
    ---------------------------------
    ---------------------------------
    ---------------------------------
    7-5-2-0---------------------0-2-5
    ---------------------------------
    --------0--0--3-2-1-0--0--0------
    
    ---------------------------------
    ---------------------------------
    ---------------------------------
    -7------------------------12-10-7
    ---------------------------------
    ---1--1--1-1-1-1--1--1--1--------
    
    ---------------------------------
    ---------------------------------
    ---------------------------------
    -5----------------------7-5-2-5--
    ---------------------------------
    ---5--5--8-7-6-5--5--5----------0
    
    ---------------------------------
    ---------------------------------
    ---------------------------------
    -------------------7-5-7-5-------
    ----------------------------7----
    --0--3-2-1-0--0--0----------5--5-
    
    ---------------------------------
    ---------------------------------
    ---------------------------------
    ---------------------------------
    ---------------------------------
    -5-8-7-6-5--5--5-5-5-5-5-5-5-8-8-
    
    ---------------------------------
    ---------------------------------
    ---------------------------------
    ---------------------------------
    ---------------------------------
    5-5-8-8-5-5-8-8-5-5-8-8-0-0-3-3-0
    
    ---------------------------------
    ---------------------------------
    ---------------------------------
    --------------------------------2
    ------------------------------3--
    -0-3-3-0-0-3-3-0-0-3-3-1-1-1-----
    
    ---------------------------------
    ---------------------------------
    ---------------------------------
    -2-------------0-0-2-0-----------
    ---3-3-------3-------------------
    -------1-1-1-----------5-5-5-5-5-
    
    ----------------
    ----------------
    ----------------
    ----------------
    ----------------
    -5-5-5-5-5-5-5-5…
  • B               G
    День закончился тихо,
    F#               E
    Ночь закончилась снова.
    B          G
    Не поминай лихом
    F#         Em 
    Каждое моё слово. 
    B            G
    Я не хотел в обиду, 
    F#         E
    Я не хотел громко.…
  • C#5 C5 B5 (x2)
    
    C#5
    Небо как тогда,
    C5
    Небо как вода,
    B5
    Небо никуда.
    C#5
    Небо как тогда,
    C5
    Небо как вода,
    B5
    Небо - никуда.
    
    C#5 D#5 E5(VII) A5 G#5 E5(VII) (x2)
    
    C#5
    И всё как надо,
    C5
    И всё прекрасно,…
Наверх