Аккорды ЖЩ - JoJo Mooon

Добавлено: @romashka
Дата добавления: 05 Мая 2022г.
Рейтинг:
0.0
Просмотров: 63
Транспонировать - +
E|-------------------------------
B|-------------------------------
G|-------------------------------
D|-12-10-7-5---------------------
A|-------------------------------
E|-----------5--5--8-7-6-5--5--5-

---------------------------------
---------------------------------
---------------------------------
7-5-2-0---------------------0-2-5
---------------------------------
--------0--0--3-2-1-0--0--0------

---------------------------------
---------------------------------
---------------------------------
-7------------------------12-10-7
---------------------------------
---1--1--1-1-1-1--1--1--1--------

---------------------------------
---------------------------------
---------------------------------
-5----------------------7-5-2-5--
---------------------------------
---5--5--8-7-6-5--5--5----------0

---------------------------------
---------------------------------
---------------------------------
-------------------7-5-7-5-------
----------------------------7----
--0--3-2-1-0--0--0----------5--5-

---------------------------------
---------------------------------
---------------------------------
---------------------------------
---------------------------------
-5-8-7-6-5--5--5-5-5-5-5-5-5-8-8-

---------------------------------
---------------------------------
---------------------------------
---------------------------------
---------------------------------
5-5-8-8-5-5-8-8-5-5-8-8-0-0-3-3-0

---------------------------------
---------------------------------
---------------------------------
--------------------------------2
------------------------------3--
-0-3-3-0-0-3-3-0-0-3-3-1-1-1-----

---------------------------------
---------------------------------
---------------------------------
-2-------------0-0-2-0-----------
---3-3-------3-------------------
-------1-1-1-----------5-5-5-5-5-

----------------
----------------
----------------
----------------
----------------
-5-5-5-5-5-5-5-5 
Наверх