Аккорды ЖЩ - Понедельник

Добавлено: @romashka
Дата добавления: 30 Апреля 2018г.
Рейтинг:
0.0
Просмотров: 21
Транспонировать - +
Intro/Solo:
   Em                 C    Bm                  D
e|-----------------------|------------------------|
B|-12-12-12-10-10-10-----|-12-12-12-10-10-10------|
G|-------------------9-7-|-------------------9-11-| 2x
D|-----------------------|------------------------|
A|-----------------------|------------------------|
E|-----------------------|------------------------|

Em           C  
Понедельник тяжелый день
Bm           D
К девяти мне в школу пора
Em           C
Мама завтракать я не буду
Bm           D
Сигарета мой завтрак с утра
Em           C  
Мимо луж я тащу свой рюкзак
Bm           D
В рюкзаке моем книги лежат
Em           C  
Бегбедер, Чак Паланик, Маршак
Bm           D
Я вообще-то интеллектуал

Solo:
   Em                 C    Bm                  D
e|-----------------------|------------------------|
B|-12-12-12-10-10-10-----|-12-12-12-10-10-10------|
G|-------------------9-7-|-------------------9-11-| 2x
D|-----------------------|------------------------|
A|-----------------------|------------------------|
E|-----------------------|------------------------|

Em           C  
Я на Катьку смотрел всю физру
Bm           D
Но не смотрит она на меня
Em           C  
Голубой цвет ее волос
Bm           D
Он так манит и манит меня
Em           C  
Она вечером за гаражом
Bm           D
Будет пить изабеллу, курить
Em           C  
Красный Мальборо или Винстон
Bm           D
Невозможно ее не любить

Solo:
   Em                 C    Bm                  D
e|-----------------------|------------------------|
B|-12-12-12-10-10-10-----|-12-12-12-10-10-10------|
G|-------------------9-7-|-------------------9-11-| 2x
D|-----------------------|------------------------|
A|-----------------------|------------------------|
E|-----------------------|------------------------|

Em           C  
Будем слушать Буерак и Пассаж
Bm           D
Будем за руки держаться вместе
Em           C  
А потом переедем в Питер
Bm           D
Чтоб тусить там до самой смерти
Em           C  
Только это потом наверное
Bm           D
Мимо луж я иду со школы
Em           C  
Жизнь вообще это штука скверная
Bm           D
Понедельник день тяжелый

Solo:
   Em                 C    Bm                  D
e|-----------------------|------------------------|
B|-12-12-12-10-10-10-----|-12-12-12-10-10-10------|
G|-------------------9-7-|-------------------9-11-| 2x
D|-----------------------|------------------------|
A|-----------------------|------------------------|
E|-----------------------|------------------------|
comments powered by Disqus
Наверх