Аккорды Би-2 - Последний герой

Добавлено: @Jlblcblu
Дата добавления: 16 Марта 2013г.
Рейтинг:
5.0
Просмотров: 1 158
Транспонировать - +
Основной рифф: 

   Em
e|--------------------------------------------|
H|-----5--5------5--5-------5--5--------5-----|
G|--------------------------------------------|
D|-2-2-------4-4-------5--5----------5-----5--|

   Am                                    
e|-----5--5------5--5-------5--5--------5-----|
H|--------------------------------------------|
G|-2-2-------4-4-------5--5----------5-----5--|

 
  Em
Я больше не играю сам своей душой,
  Am
Какая есть, кому-нибудь сгодится.
Но медь – не золото, и твой герой - 
Последний, кем бы ты могла гордиться.


        Припев
               Em
 Остаться в живых, отчаянный псих
      Am
 Не свой не чужой, последний герой


 Проигрыш в припеве:
 
    Em
 H|-5-0-5--4-0-4--3-0-3---2-1-0--|
 
    Am
 e|-5-0-5--4-0-4--3-0-3---2-1-0--|



Проигрыш: Em | Em F | Em | Em F


Все то немногое, на четное не ставь
Когда любовь и слезы не дороже хлеба.
И кажется что до земли добраться вплавь
Возможно тем, кто по воде уходит в небо. 


 Припев
Наверх