Аккорды Би-2 - И корабль плывёт

Добавлено: @Jlblcblu
Дата добавления: 16 Марта 2013г.
Рейтинг:
5.0
Просмотров: 890
Транспонировать - +
Вступление:

   Hm    F#             Hm F#   Em  Esus2   F#
e||--------------------|-------|-----------|--------------|
H||--------------------|-------|-----------|--------------|
G||---7-9--------------|-------|-----------|---7-9-9b11r9-|
D||-9-----------7-7-7--|-------|-----------|-8------------|
A||-------9-9-9--------|-------|-----------|--------------|
E||--------------------|-------|-----------|--------------|

          Hm        F#
Сколько звезд на погоны
   Hm      F#
Добыли в боях
       Em      Esus2
На пустых полигонах
     F#
В неведомых снах

Дайте небо под крылья
Подстреленных птиц
Журавлиному клину
Скорую помощь

       G
 Отпустите синицу
     A
 На верную смерть
        F#               Hm
 Пусть ее приласкает свобода
      G
 И корабль плывет
    A
 И сквозь колотый лед
        F#       G      F#
 Я смотрю в эту черную воду

Никого не зову
Не жалею не плачу
У вас на яву
У меня на удачу

Луна как стекло
Не любила не грела
Никого не ждала
Ничего не хотела

 Припев

Соло (аккомпанемент куплета):

e||-7-10-12-14---------------------------------7---7-9--/14------|
H||-------------7-8-7------------------7-8---8---8---------------|
G||--------------------7-------------------9---------------------|
D||-----------------------9--9--9-8------------------------------|
A||---------------------------------9----------------------------|
E||--------------------------------------------------------------|

e||----------------------------------------------------7---10--9-|
H||-------------------8-7---------------------7-8-10-----8-------|
G||---------7---9-7-9---------------7-9\---/9--------------------|
D||----7-9---------------------7-9-------------------------------|
A||-9---------------------7-9------------------------------------|
E||--------------------------------------------------------------|

e||-14-15-14-15-14-15-14-15--------------------------------------|
H||--------------------------------------------------------------|
G||--------------------------------------------------------------|
D||--------------------------------------------------------------|
A||--------------------------------------------------------------|
E||--------------------------------------------------------------|
Наверх