Аккорды Би-2 - И корабль плывёт

Добавлено: @romashka
Дата добавления: 03 Октября 2018г.
Рейтинг:
0.0
Просмотров: 30
Транспонировать - +
Intro:
3)---------------7--9-------------------------
4)---------9------------------------7-----7-7- x3 
5)------------------------9------9------------

3)---------------7----9----9---11--9----11--9-
4)---------8----------------------------------

3)---------------7--9-------------------------
4)---------9------------------------7-----7-7- x3 
5)------------------------9------9------------

3)---------------7----9----9---11--9----11-
4)---------8-------------------------------

Проигрыш: Bm Bm7+ Bm Bm7+ Em Esus2 F# }x2 

         Bm        Bm7+
Сколько звезд на погоны
   Bm      Bm7+
Добыли в боях
       Em      Esus2
На пустых полигонах
     F#
В неведомых снах

          Bm       Bm7+
Дайте небо под крылья
          Bm    Bm7+
Подстреленных птиц
       Em     Esus2
Журавлиному клину
     F#
Скорую помощь

Припев:
      G5
Отпустите синицу
    A5    
На верную смерть
       A#5      F#5    B5
Пусть ее приласкает свобода
      G5     
И корабль плывет
         A5   
И сквозь колотый лед
       A#5     G5     F#5
Я смотрю в эту черную воду

Проигрыш: Bm Bm7+ Bm Bm7+ Em Esus2 F# }x2 

   Bm     Bm7+
Никого не зову
      Bm      Bm7+
Не жалею не плачу
    Em   Esus2
У вас на яву
     F#
У меня на удачу

    Bm      Bm7+
Луна как стекло
       Bm       Bm7+
Не любила не грела
       Em   Esus2
Никого не ждала
     F#
Ничего не хотела

Припев:
      G5
Отпустите синицу
    A5    
На верную смерть
       A#5      F#5    B5
Пусть ее приласкает свобода
      G5     
И корабль плывет
         A5   
И сквозь колотый лед
       A#5     G5     F#5
Я смотрю в эту черную воду

Проигрыш: Bm Bm7+ Bm Bm7+ Em Esus2 F# }x2 

Бой:
вниз-вниз-вверх-вниз_с_глушилкой-вверх-вниз-вверх

Куплет в оригинале играется на 7-ом и 6-ом ладах, т.е. аккорды Bm Bm7+ Em Esus2 играются на 7-ом ладу, аккорд F# - на 6-ом ладу:

Bm    799777
Bm7+  798777
Em    x79987
Esus2 x79977
F#    x98676

В припеве играется квинтами.
comments powered by Disqus
Наверх