Аккорды Demons & Wizards - Rites of Passage

Добавлено: @romashka
Дата добавления: 06 Апреля 2018г.
Рейтинг:
0.0
Просмотров: 52
Транспонировать - +
TUNING: Eb

This is probably the shortest tab in history. The song is basically an intro
and leads into "Heaven Denies".

|---------------------------------------|
|---------------------------------------|
|--5------4-------------------5------2--|
|--5------4-------------------5------2--|
|--3------2-------------------3------0--|
|---------------------------------------|

|--------------------|
|--------------------|
|--5----7--5----4----|
|--5----7--5----4----|
|--3----5--3----2----|
|--------------------|

|--------------|
|--------------|
|--5--4-----2--|
|--5--4--5--2--|
|--3--2--5--0--|
|--------3-----|

|---------------------------------------|
|---------------------------------------|
|--5------4-------------------5------2--|
|--5------4-------------------5------2--|
|--3------2-------------------3------0--|
|---------------------------------------|

|--------------------|
|--------------------|
|--5----7--5----4----|
|--5----7--5----4----|
|--3----5--3----2----|
|--------------------|

|--------------|
|--------------|
|--5--4--------|
|--5--4--5--2--|
|--3--2--5--2--|
|--------3--0--|
[End]
comments powered by Disqus
Наверх