Аккорды Demons & Wizards - Fiddler on the Green

Добавлено: @romashka
Дата добавления: 06 Апреля 2018г.
Рейтинг:
0.0
Просмотров: 58
Транспонировать - +
TABLATURE EXPLANATION

   PM. : Palm Muting
   h   : Hammer On
   p   : Pull Off

   TUNE DOWN 1/2 STEP

   Intro Riff
        
        Am                      Am        Asus4
e:-||------------------------------------------------------||
B:-||---------1-----0-----0-----------1-----3-----0--------||
G:-||-*-----2---2-----2-----2-------2---2-----2-----2------||
D:-||-*---2-------2-----2-----2---2-------2-----2-----2----||
A:-||---0-----------------------0--------------------------||
E:-||------------------------------------------------------||
        Am                      C         Cadd9   C          
e:-||------------------------------------------------------||
B:-||---------1-----0-----0-----------1-----3-----1--------||
G:-||-------2---2-----2-----2-------0---0-----0-----0----*-||
D:-||-----2-------2-----2-----2---2-------2-----2-----2--*-||
A:-||---0-----------------------3--------------------------||
E:-||------------------------------------------------------||

   Verse 1  ( Intro Riff )
   
   Sad voices they're calling
   Our precious girl she can't be gone
   How bitter this morning
   When daddy's darling
   Went out and started her day

   Verse 2 
   Am             C
   Wasn't there a dream, last night
                       Am
   Like a spring never ending 
   
   Still the water runs clear
              C
   through my mind
          G                 Am
   On the field I can see a fiddler
                      C
   The fiddler on the green
         G   Am
   And a sad boy
                  C
   I took him too early
   G
   Would you mind
   F
   Would you mind
   G
   Would you mind
   
   If I take you

   Lead 1 ( Electric Guitar ) ( Acustic Guitar Plays Intro Riff )

e:-||-----------------------------------------------------||
B:-||-----------------------------------------------------||
G:-||---------------WAIT FOR UPDATE-----------------------||
D:-||-/7~~~-----------------------------------------------||
A:-||-----------------------------------------------------||
E:-||-----------------------------------------------------||

   Solo ( Acustic Guitar )
     Am                  C        G               Am
e:-||-----------------------------------------------------||
B:-||-----------------------------------------------------||
G:-||-----------------------------------------------------||
D:-||-7----------7-9-10-5---------10---9---9-10-9-7-------||
A:-||-----------------------------------------------------||
E:-||-----------------------------------------------------||
                  C         G        Am
e:-||-----------------------------------------------------||
B:-||-----------------------------------------------------||
G:-||-----------------------------------------------------||
D:-||------7-9-10-5---------10---9---10-------------------||
A:-||-----------------------------------------------------||
E:-||-----------------------------------------------------||
                  C     G           Am                C
e:-||-----------------------------------------------------||
B:-||--8---8--888-5-----8--6--6-8-6-5------8---8--888-5---||
G:-||-----------------------------------------------------||
D:-||-----------------------------------------------------||
A:-||-----------------------------------------------------||
E:-||-----------------------------------------------------||
       G  F                 G
e:-||-----------------------------------------------------------------||
B:-||--8--6--8/10----6-8-10/12----------------------------------------||
G:-||------------------------------12-10-9-10-9----9------------------||
D:-||-------------------------------------------12---12-10-12-10-9-10-||
A:-||-----------------------------------------------------------------||
E:-||-----------------------------------------------------------------||

   Verse 3 ( Intro Riff )
   
   To be with you
   To be with you 
   To be with you

   The sun seemed bright
   The air was clear
   The air was clear
   A trick fo Light
   Turned red into green
   She saw the light
   Her face was pale
   Her body smashed
   Her beauty's gone

   Verse 4 
   Am         C   G
   Isn't it a shame
              Am
   The reaper said
                     C
   He is quite alone here
             G           Am
   And still waiting for you
                                C
   Oh I really did fail for the first time
             G                 Am
   Spoke the fiddler, poor old fiddler
                      C
   The fiddler on the green
       G              F
   The fidller on the green
               G
   It would be nice ...

   Take my hand

   Verse 5

   Just hold my hand
   I'll take you there
   Your pain will go away
     
     A5                 C5       G5              A5
e:-||-----------------------------------------------------||
B:-||-----------------------------------------------------||
G:-||-----------------------------------------------------||
D:-||-7----------7-9-10-----------10---9---9h10p9-7-------||
A:-||-------------------10--------------------------------||
E:-||-----------------------------------------------------||
                  C5        G5       A5
e:-||-----------------------------------------------------||
B:-||-----------------------------------------------------||
G:-||-----------------------------------------------------||
D:-||------7-9-10-----------10---9---10-------------------||
A:-||-------------10--------------------------------------||
E:-||-----------------------------------------------------||
                  C5    G5          A5                C5
e:-||-----------------------------------------------------||
B:-||--8---8--888-5-----8--6--6h8p6-5------8---8--888-5---||
G:-||-----------------------------------------------------||
D:-||-----------------------------------------------------||
A:-||-----------------------------------------------------||
E:-||-----------------------------------------------------||
       G5 F5                G5
e:-||----------------------------------------------------------------------||
B:-||--8--6-6h8p6-8/10----6-8-10/12----------------------------------------||
G:-||-----------------------------------12-10-9-10-9----9------------------||
D:-||------------------------------------------------12---12-10-12-10-9-10-||
A:-||----------------------------------------------------------------------||
E:-||----------------------------------------------------------------------||

e:-||-----------------------------------------------------||
B:-||-----------------------------------------------------||
G:-||---------------WAIT FOR UPDATE-----------------------||
D:-||-----------------------------------------------------||
A:-||-----------------------------------------------------||
E:-||-----------------------------------------------------||

e:-||------------------------------------------------------||
B:-||------------------------------------------------------||
G:-||------------------------------------------------------||
D:-||------------------------------------------------------||
A:-||------------------------------------------------------||
E:-||------------------------------------------------------||
comments powered by Disqus
Наверх