Аккорды Demons & Wizards - Down Where I Am

Добавлено: @romashka
Дата добавления: 06 Апреля 2018г.
Рейтинг:
0.0
Просмотров: 38
Транспонировать - +
       isn't it....
G||--------------------------------------------------------|
D||--------------------------------------------------------|
A||--------1~-----0~---0----------------1~------------0----|
E||-3~----3-------------3~-------3~----3------1~-------3---|
B||--------------------------------------------------------|

      i don't want.....
G||---------------------------------------------------------|
D||---------------------------------------------------------|
A||--------1~-----0~---------------------3------------------|
E||-3~----3------------1-3~-------3~------1~-----------3~---|
B||---------------------------------------------4~----4-----|

      Down where I am
G||-------------------------------|
D||-------------------------------|
A||-------------------------------|
E||-3~---3-1~----------3~---------|
B||-------------4~----4-----------|

      i don't want.....
G||--------------------------------|
D||--------------------------------|
A||-------3-1~----1-0~----0--------| x2
E||-3~---------------------3~------|
B||--------------------------------|

G||--------------------------------------------------------------------|
D||--------------------------------------------------------------------|
A||---------------3-----------------------------------------5--5--5----| x2
E||-3-3-3-3-3-3-3---1-1-1-1-1-1-1-1-----------------3-3-3-3--33-33-3---|
B||---------------------------------4-4-4-4-4-4-4-4--------------------|

G||--------------------------------------------------------------------|
D||--------------------------------------------------------------------|
A||-----------------1-1-1-1-1-1-1-1------------------------------------| x2
E||-3-3-3-3-3-3-3-3------------------1-1-1-1-1-1-1-1--3-3-3-3-3-3-3-3--|
B||--------------------------------------------------------------------|

                                                     
G||--------------------------------------------------------------------|
D||--------------------------------------------------------------------|
A||---------------3-----------------------------------------5--5--5----|  till fade out....
E||-3-3-3-3-3-3-3---1-1-1-1-1-1-1-1-----------------3-3-3-3--33-33-3---|
B||---------------------------------4-4-4-4-4-4-4-4--------------------|
comments powered by Disqus
Наверх