Аккорды Demons & Wizards - Terror Train

Добавлено: @romashka
Дата добавления: 06 Апреля 2018г.
Рейтинг:
0.0
Просмотров: 34
Транспонировать - +
Tuning:D#G#C#F#

Main riff 1
|---------------------------------------------------------------------|
|---------------------------------------------------------------------|
|------------------8------5----8-8-7----------------------------------|
|-00000-00000-0000---0000---00-------66666-66666-6666-1-1-1-1-3-3-3-3-|
 4x

Riff 2
|---------------------------------------------------------------------------------|
|---------------------------------------------------------------------------------|
|------2222------3333------2222------3333------3333------4444------3333------4444-|
|-0000------0000------0000------0000------1111------1111------1111------1111------|
 2x

Main riff-4x
Riff 2-2x

Riff 3
|------------------------------------------------------------------------------------------|
|------9999-7777----------10101010-9999----------7777------9999-7777-----------------------|
|-7777-----------10101010---------------10101010------6666-----------10101010-66666666-6-6-|
|------------------------------------------------------------------------------------------|
 2x

Riff 4
|-------------------------------------------------------------------------------------|
|-------------------------------------------------------------------------------------|
|-7777777777777777-10101010101010101010101010101010-9999999999999999-5555555555555555-|
|-------------------------------------------------------------------------------------|

|------------------------------------------------------------------------------------------------|
|------------------------------------------------------------------------------------------------|
|-7777777777777777-10101010101010101010101010101010-12121212121212121212121212121212-555555555555|
|------------------------------------------------------------------------------------------------|

Riff 5
|--------------------------------------------------------------------------- |_____
|-------------------------------------------------------------------|     -- |
|-7-7-7-7-7-7-7-7-10-7-7-7-9-7-7-7-7-7-7-7-7-7-7-7-10-7-7-7-9-7-7-7-|     -- |
|-------------------------------------------------------------------|     -- |
                                                                           2x
|-----------------------------------------------------------------|       -- |
|-----------------------------------------------------------------|       -- |
|-6-6-6-6-6-6-6-6-9-6-6-6-8-6-6-6-6-6-6-6-6-6-6-6-9-6-6-6-8-6-6-6-|_______-- |
|--------------------------------------------------------------------------- |

Main Riff-4x
Riff 2-2x
Riff 3-2x
Riff 4
Riff 5-2x

Riff 6
|-----------------|
|-----------------|
|-----------------|
|-0-000-0-0-0-0-0-|
 32x

Main Riff-4x
Riff 2-2x
Riff 3-2x
Riff 4
Riff 2-6x
comments powered by Disqus
Наверх