Аккорды Green Day - 86

Добавлено: @romashka
Дата добавления: 16 Марта 2013г.
Рейтинг:
0.0
Просмотров: 342
Транспонировать - +
E|--------------------------|
B|-5--5---5-(5)-------5---5-|
G|-9--9---9-(9)---9---9---9-|
D|-9--9---9-(9)---9---9---9-|
A|-7--7---7-(7)---7---7---7-|
E|--------------------------|

E|----------------------------|--------------------------|
B|----------------------------|--------------------------|
G|----------------------------|-2--2---2-(2)---2---2---2-|
D|-6--6---6-(6)---6---6---6---|-2--2---2-(2)---2---2---2-|
A|-6--6---6-(6)---6---6---6---|-0--0---0-(0)---0---0---0-|
E|-4--4---4-(4)---4---4---4---|----------------5---------|

E|---------------------------------|--------------------------|
B|---------------------------------|-5--5---5-(5)-------5---5-|
G|-2---2---2---2---2---2---2---2---|-9--9---9-(9)---9---9---9-|
D|-2---2---2---2---2---2---2---2---|-9--9---9-(9)---9---9---9-|
A|-0---0---0---0---0---0---0---0---|-7--7---7-(7)---7---7---7-|
E|---------------------------------|--------------------------|

E|----------------------------|--------------------------|
B|----------------------------|--------------------------|
G|----------------------------|-2--2---2-(2)---2---2---2-|
D|-6--6---6-(6)---6---6---6---|-2--2---2-(2)---2---2---2-|
A|-6--6---6-(6)---6---6---6---|-0--0---0-(0)---0---0---0-|
E|-4--4---4-(4)---4---4---4---|----------------5---------|

E|---------------------------------|--------------------------|
B|---------------------------------|--------------------------|
G|-2---2---2---2---2---2---2---2---|--------------------------|
D|-2---2---2---2---2---2---2---2---|-2--2---2---2---2---2---2-|
A|-0---0---0---0---0---0---0---0---|-2--2---2---2---2---2---2-|
E|---------------------------------|-0--0---0---0---0---0---0-|

E|---------------------------------|--------------------------|
B|---------------------------------|-0--0---0---0---0---0---0-|
G|---------------------------------|-4--4---4---4---4---4---4-|
D|-2---2---2---2---2---2---2---2---|-4--4---4---4---4---4---4-|
A|-2---2---2---2---2---2---2---2---|-2--2---2---2---2---2---2-|
E|-0---0---0---0---0---0---0---0---|--------------------------|

E|--------------------------|--------------------------|
B|---0---0---0---0---0---0--|--------------------------|
G|---4---4---4---4---4---4--|-2--2---2---2---2---2---2-|
D|---4---4---4---4---4---4--|-2--2---2---2---2---2---2-|
A|---2---2---2---2---2---2--|-0--0---0---0---0---0---0-|
E|--------------------------|--------------------------|

E|-------------------------------|--------------------------|
B|-------------------------------|--------------------------|
G|---2---2---2---2---2---2---2---|--------------------------|
D|---2---2---2---2---2---2---2---|-2--2---2---2---2---2---2-|
A|---0---0---0---0---0---0---0---|-2--2---2---2---2---2---2-|
E|-------------------------------|-0--0---0---0---0---0---0-|

E|----------------------------|--------------------------|
B|----------------------------|--------------------------|
G|---------------------2---2--|--------------------------|
D|-2---2---2---2---2---2---2--|-2--2---2---2---2---2---2-|
A|-2---2---2---2---2---0---0--|-2--2---2---2---2---2---2-|
E|-0---0---0---0---0----------|-0--0---0---0---0---0---0-|

E|---------------------------------|--------------------------|
B|---------------------------------|-0--0---0---0---0---0---0-|
G|---------------------------------|-4--4---4---4---4---4---4-|
D|-2---2---2---2---2---2---2---2---|-4--4---4---4---4---4---4-|
A|-2---2---2---2---2---2---2---2---|-2--2---2---2---2---2---2-|
E|-0---0---0---0---0---0---0---0---|--------------------------|

E|---------------------------------|---------------------|
B|-0---0---0---0---0---0---0---0---|---------------------|
G|-4---4---4---4---4---4---4---4---|-2--2--2---2---2---2-|
D|-4---4---4---4---4---4---4---4---|-2--2--2---2---2---2-|
A|-2---2---2---2---2---2---2---2---|-0--0--0---0---0---0-|
E|---------------------------------|---------------------|

E|---------------------------------|--------------------------|
B|---------------------------------|--------------------------|
G|-2---2---2---2---2---2---2---2---|----------------2-(2)-----|
D|-2---2---2---2---2---2---2---2---|-2--2---2---2---2-(2)---2-|
A|-0---0---0---0---0---0---0---0---|-2--2---2---2---0-(0)---2-|
E|---------------------------------|-0--0---0---0-----------0-|

E|-------------------------|---------------------|
B|-------------------------|-0--0--0---0---0---0-|
G|-------------------------|-4--4--4---4---4---4-|
D|-(2)---2---2---2---2--2--|-4--4--4---4---4---4-|
A|-(2)---2---2---2---2--2--|-2--2--2---2---2---2-|
E|-(0)---0---0---0---0--0--|---------------------|

E|-----------------------------------|--------------------------|
B|-(0)---0---0---0-(0)-------0---0---|--------------------------|
G|-(4)---4---4---4-(4)---4---4---4---|-2--2---2-(2)---2---2---2-|
D|-(4)---4---4---4-(4)---4---4---4---|-2--2---2-(2)---2---2---2-|
A|-(2)---2---2---2-(2)---2---2---2---|-0--0---0-(0)---0---0---0-|
E|-----------------------------------|----------------5---------|

E|---------------------------------|---------------------|
B|---------------------------------|-0--0--0---0---0---0-|
G|-2---2---2---2---2---2---2---2---|-4--4--4---4---4---4-|
D|-2---2---2---2---2---2---2---2---|-4--4--4---4---4---4-|
A|-0---0---0---0---0---0---0---0---|-2--2--2---2---2---2-|
E|---------------------------------|---------------------|

E|-----------------------------------|--------------------------|
B|-(0)---0---0---0-(0)-------0---0---|--------------------------|
G|-(4)---4---4---4-(4)---4---4---4---|-2--2---2-(2)---2---2---2-|
D|-(4)---4---4---4-(4)---4---4---4---|-2--2---2-(2)---2---2---2-|
A|-(2)---2---2---2-(2)---2---2---2---|-0--0---0-(0)---0---0---0-|
E|-----------------------------------|----------------5---------|

E|---------------------------------|--------------------------|
B|---------------------------------|-5--5---5-(5)-------5---5-|
G|-2---2---2---2---2---2---2---2---|-9--9---9-(9)---9---9---9-|
D|-2---2---2---2---2---2---2---2---|-9--9---9-(9)---9---9---9-|
A|-0---0---0---0---0---0---0---0---|-7--7---7-(7)---7---7---7-|
E|---------------------------------|--------------------------|

E|----------------------------|--------------------------|
B|----------------------------|--------------------------|
G|----------------------------|-2--2---2-(2)---2---2---2-|
D|-6--6---6-(6)---6---6---6---|-2--2---2-(2)---2---2---2-|
A|-6--6---6-(6)---6---6---6---|-0--0---0-(0)---0---0---0-|
E|-4--4---4-(4)---4---4---4---|----------------5---------|

E|---------------------------------|--------------------------|
B|---------------------------------|-5--5---5-(5)-------5---5-|
G|-2---2---2---2---2---2---2---2---|-9--9---9-(9)---9---9---9-|
D|-2---2---2---2---2---2---2---2---|-9--9---9-(9)---9---9---9-|
A|-0---0---0---0---0---0---0---0---|-7--7---7-(7)---7---7---7-|
E|---------------------------------|--------------------------|

E|----------------------------|--------------------------|
B|----------------------------|--------------------------|
G|----------------------------|-2--2---2-(2)---2---2---2-|
D|-6--6---6-(6)---6---6---6---|-2--2---2-(2)---2---2---2-|
A|-6--6---6-(6)---6---6---6---|-0--0---0-(0)---0---0---0-|
E|-4--4---4-(4)---4---4---4---|----------------5---------|

E|---------------------------------|--------------------------|
B|---------------------------------|-5--5---5-(5)-------5---5-|
G|-2---2---2---2---2---2---2---2---|-9--9---9-(9)---9---9---9-|
D|-2---2---2---2---2---2---2---2---|-9--9---9-(9)---9---9---9-|
A|-0---0---0---0---0---0---0---0---|-7--7---7-(7)---7---7---7-|
E|---------------------------------|--------------------------|

E|----------------------------|--------------------------|
B|----------------------------|--------------------------|
G|----------------------------|-2--2---2-(2)---2---2---2-|
D|-6--6---6-(6)---6---6---6---|-2--2---2-(2)---2---2---2-|
A|-6--6---6-(6)---6---6---6---|-0--0---0-(0)---0---0---0-|
E|-4--4---4-(4)---4---4---4---|----------------5---------|

E|---------------------------------|--------------------------|
B|---------------------------------|-5--5---5-(5)-------5---5-|
G|-2---2---2---2---2---2---2---2---|-9--9---9-(9)---9---9---9-|
D|-2---2---2---2---2---2---2---2---|-9--9---9-(9)---9---9---9-|
A|-0---0---0---0---0---0---0---0---|-7--7---7-(7)---7---7---7-|
E|---------------------------------|--------------------------|

E|----------------------------|--------------------------|
B|----------------------------|--------------------------|
G|----------------------------|-2--2---2-(2)---2---2---2-|
D|-6--6---6-(6)---6---6---6---|-2--2---2-(2)---2---2---2-|
A|-6--6---6-(6)---6---6---6---|-0--0---0-(0)---0---0---0-|
E|-4--4---4-(4)---4---4---4---|----------------5---------|

E|---------------------------------|--------------------------|
B|---------------------------------|--------------------------|
G|-2---2---2---2---2---2---2---2---|--------------------------|
D|-2---2---2---2---2---2---2---2---|-2--2---2---2---2---2---2-|
A|-0---0---0---0---0---0---0---0---|-2--2---2---2---2---2---2-|
E|---------------------------------|-0--0---0---0---0---0---0-|

E|---------------------------------|--------------------------|
B|---------------------------------|-0--0---0---0---0---0---0-|
G|---------------------------------|-4--4---4---4---4---4---4-|
D|-2---2---2---2---2---2---2---2---|-4--4---4---4---4---4---4-|
A|-2---2---2---2---2---2---2---2---|-2--2---2---2---2---2---2-|
E|-0---0---0---0---0---0---0---0---|--------------------------|

E|--------------------------|--------------------------|
B|---0---0---0---0---0---0--|--------------------------|
G|---4---4---4---4---4---4--|-2--2---2---2---2---2---2-|
D|---4---4---4---4---4---4--|-2--2---2---2---2---2---2-|
A|---2---2---2---2---2---2--|-0--0---0---0---0---0---0-|
E|--------------------------|--------------------------|

E|-------------------------------|--------------------------|
B|-------------------------------|--------------------------|
G|---2---2---2---2---2---2---2---|--------------------------|
D|---2---2---2---2---2---2---2---|-2--2---2---2---2---2---2-|
A|---0---0---0---0---0---0---0---|-2--2---2---2---2---2---2-|
E|-------------------------------|-0--0---0---0---0---0---0-|

E|----------------------------|--------------------------|
B|----------------------------|--------------------------|
G|---------------------2---2--|--------------------------|
D|-2---2---2---2---2---2---2--|-2--2---2---2---2---2---2-|
A|-2---2---2---2---2---0---0--|-2--2---2---2---2---2---2-|
E|-0---0---0---0---0----------|-0--0---0---0---0---0---0-|

E|---------------------------------|--------------------------|
B|---------------------------------|-0--0---0---0---0---0---0-|
G|---------------------------------|-4--4---4---4---4---4---4-|
D|-2---2---2---2---2---2---2---2---|-4--4---4---4---4---4---4-|
A|-2---2---2---2---2---2---2---2---|-2--2---2---2---2---2---2-|
E|-0---0---0---0---0---0---0---0---|--------------------------|

E|---------------------------------|---------------------|
B|-0---0---0---0---0---0---0---0---|---------------------|
G|-4---4---4---4---4---4---4---4---|-2--2--2---2---2---2-|
D|-4---4---4---4---4---4---4---4---|-2--2--2---2---2---2-|
A|-2---2---2---2---2---2---2---2---|-0--0--0---0---0---0-|
E|---------------------------------|---------------------|

E|---------------------------------|--------------------------|
B|---------------------------------|--------------------------|
G|-2---2---2---2---2---2---2---2---|----------------2-(2)-----|
D|-2---2---2---2---2---2---2---2---|-2--2---2---2---2-(2)---2-|
A|-0---0---0---0---0---0---0---0---|-2--2---2---2---0-(0)---2-|
E|---------------------------------|-0--0---0---0-----------0-|

E|-------------------------|---------------------|
B|-------------------------|-0--0--0---0---0---0-|
G|-------------------------|-4--4--4---4---4---4-|
D|-(2)---2---2---2---2--2--|-4--4--4---4---4---4-|
A|-(2)---2---2---2---2--2--|-2--2--2---2---2---2-|
E|-(0)---0---0---0---0--0--|---------------------|

E|-----------------------------------|--------------------------|
B|-(0)---0---0---0-(0)-------0---0---|--------------------------|
G|-(4)---4---4---4-(4)---4---4---4---|-2--2---2-(2)---2---2---2-|
D|-(4)---4---4---4-(4)---4---4---4---|-2--2---2-(2)---2---2---2-|
A|-(2)---2---2---2-(2)---2---2---2---|-0--0---0-(0)---0---0---0-|
E|-----------------------------------|----------------5---------|

E|---------------------------------|---------------------|
B|---------------------------------|-0--0--0---0---0---0-|
G|-2---2---2---2---2---2---2---2---|-4--4--4---4---4---4-|
D|-2---2---2---2---2---2---2---2---|-4--4--4---4---4---4-|
A|-0---0---0---0---0---0---0---0---|-2--2--2---2---2---2-|
E|---------------------------------|---------------------|

E|-----------------------------------|--------------------------|
B|-(0)---0---0---0-(0)-------0---0---|--------------------------|
G|-(4)---4---4---4-(4)---4---4---4---|-2--2---2-(2)---2---2---2-|
D|-(4)---4---4---4-(4)---4---4---4---|-2--2---2-(2)---2---2---2-|
A|-(2)---2---2---2-(2)---2---2---2---|-0--0---0-(0)---0---0---0-|
E|-----------------------------------|----------------5---------|

E|---------------------------------|--------------------------|
B|---------------------------------|-5--5---5-(5)-------5---5-|
G|-2---2---2---2---2---2---2---2---|-9--9---9-(9)---9---9---9-|
D|-2---2---2---2---2---2---2---2---|-9--9---9-(9)---9---9---9-|
A|-0---0---0---0---0---0---0---0---|-7--7---7-(7)---7---7---7-|
E|---------------------------------|--------------------------|

E|----------------------------|--------------------------|
B|----------------------------|--------------------------|
G|----------------------------|-2--2---2-(2)---2---2---2-|
D|-6--6---6-(6)---6---6---6---|-2--2---2-(2)---2---2---2-|
A|-6--6---6-(6)---6---6---6---|-0--0---0-(0)---0---0---0-|
E|-4--4---4-(4)---4---4---4---|----------------5---------|

E|---------------------------------|--------------------------|
B|---------------------------------|-5--5---5-(5)-------5---5-|
G|-2---2---2---2---2---2---2---2---|-9--9---9-(9)---9---9---9-|
D|-2---2---2---2---2---2---2---2---|-9--9---9-(9)---9---9---9-|
A|-0---0---0---0---0---0---0---0---|-7--7---7-(7)---7---7---7-|
E|---------------------------------|--------------------------|

E|----------------------------|--------------------------|
B|----------------------------|--------------------------|
G|----------------------------|-2--2---2-(2)---2---2---2-|
D|-6--6---6-(6)---6---6---6---|-2--2---2-(2)---2---2---2-|
A|-6--6---6-(6)---6---6---6---|-0--0---0-(0)---0---0---0-|
E|-4--4---4-(4)---4---4---4---|----------------5---------|

E|---------------------------------|--------------------------|
B|---------------------------------|-5--5---5-(5)-------5---5-|
G|-2---2---2---2---2---2---2---2---|-9--9---9-(9)---9---9---9-|
D|-2---2---2---2---2---2---2---2---|-9--9---9-(9)---9---9---9-|
A|-0---0---0---0---0---0---0---0---|-7--7---7-(7)---7---7---7-|
E|---------------------------------|--------------------------|

E|----------------------------|--------------------------|
B|----------------------------|--------------------------|
G|----------------------------|-2--2---2-(2)---2---2---2-|
D|-6--6---6-(6)---6---6---6---|-2--2---2-(2)---2---2---2-|
A|-6--6---6-(6)---6---6---6---|-0--0---0-(0)---0---0---0-|
E|-4--4---4-(4)---4---4---4---|----------------5---------|

E|---------------------------------|--------------------------|
B|---------------------------------|-5--5---5-(5)-------5---5-|
G|-2---2---2---2---2---2---2---2---|-9--9---9-(9)---9---9---9-|
D|-2---2---2---2---2---2---2---2---|-9--9---9-(9)---9---9---9-|
A|-0---0---0---0---0---0---0---0---|-7--7---7-(7)---7---7---7-|
E|---------------------------------|--------------------------|

E|----------------------------|--------------------------|
B|----------------------------|--------------------------|
G|----------------------------|-2--2---2-(2)---2---2---2-|
D|-6--6---6-(6)---6---6---6---|-2--2---2-(2)---2---2---2-|
A|-6--6---6-(6)---6---6---6---|-0--0---0-(0)---0---0---0-|
E|-4--4---4-(4)---4---4---4---|----------------5---------|

E|---------------------------------|--------------------------|
B|---------------------------------|-5--5---5-(5)-------5---5-|
G|-2---2---2---2---2---2---2---2---|-9--9---9-(9)---9---9---9-|
D|-2---2---2---2---2---2---2---2---|-9--9---9-(9)---9---9---9-|
A|-0---0---0---0---0---0---0---0---|-7--7---7-(7)---7---7---7-|
E|---------------------------------|--------------------------|

E|----------------------------|--------------------------|
B|----------------------------|--------------------------|
G|----------------------------|-2--2---2-(2)---2---2---2-|
D|-6--6---6-(6)---6---6---6---|-2--2---2-(2)---2---2---2-|
A|-6--6---6-(6)---6---6---6---|-0--0---0-(0)---0---0---0-|
E|-4--4---4-(4)---4---4---4---|----------------5---------|

E|---------------------------------|--------------------------|
B|---------------------------------|-5--5---5-(5)-------5---5-|
G|-2---2---2---2---2---2---2---2---|-9--9---9-(9)---9---9---9-|
D|-2---2---2---2---2---2---2---2---|-9--9---9-(9)---9---9---9-|
A|-0---0---0---0---0---0---0---0---|-7--7---7-(7)---7---7---7-|
E|---------------------------------|--------------------------|

E|----------------------------|--------------------------|
B|----------------------------|--------------------------|
G|----------------------------|-2--2---2-(2)---2---2---2-|
D|-6--6---6-(6)---6---6---6---|-2--2---2-(2)---2---2---2-|
A|-6--6---6-(6)---6---6---6---|-0--0---0-(0)---0---0---0-|
E|-4--4---4-(4)---4---4---4---|----------------5---------|

E|---------------------------------|--------------------------|
B|---------------------------------|-5--5---5-(5)-------5---5-|
G|-2---2---2---2---2---2---2---2---|-9--9---9-(9)---9---9---9-|
D|-2---2---2---2---2---2---2---2---|-9--9---9-(9)---9---9---9-|
A|-0---0---0---0---0---0---0---0---|-7--7---7-(7)---7---7---7-|
E|---------------------------------|--------------------------|

E|----------------------------|--------------------------|
B|----------------------------|--------------------------|
G|----------------------------|-2--2---2-(2)---2---2---2-|
D|-6--6---6-(6)---6---6---6---|-2--2---2-(2)---2---2---2-|
A|-6--6---6-(6)---6---6---6---|-0--0---0-(0)---0---0---0-|
E|-4--4---4-(4)---4---4---4---|----------------5---------|

E|---------------------------------|--------------------------|
B|---------------------------------|-5--5---5-(5)-------5---5-|
G|-2---2---2---2---2---2---2---2---|-9--9---9-(9)---9---9---9-|
D|-2---2---2---2---2---2---2---2---|-9--9---9-(9)---9---9---9-|
A|-0---0---0---0---0---0---0---0---|-7--7---7-(7)---7---7---7-|
E|---------------------------------|--------------------------|

E|----------------------------|--------------------------|
B|----------------------------|--------------------------|
G|----------------------------|-2--2---2-(2)---2---2---2-|
D|-6--6---6-(6)---6---6---6---|-2--2---2-(2)---2---2---2-|
A|-6--6---6-(6)---6---6---6---|-0--0---0-(0)---0---0---0-|
E|-4--4---4-(4)---4---4---4---|----------------5---------|

E|---------------------------------|---------------------|
B|---------------------------------|-0--0--0---0---0-----|
G|-2---2---2---2---2---2---2---2---|-4--4--4---4---4---2-|
D|-2---2---2---2---2---2---2---2---|-4--4--4---4---4---2-|
A|-0---0---0---0---0---0---0---0---|-2--2--2---2---2---0-|
E|---------------------------------|---------------------|

E|---------------------|---------------------------------|
B|-0--0--0---0---0-----|---------------------------------|
G|-4--4--4---4---4---2-|-(2)---2---2---2---2---2---2---2-|
D|-4--4--4---4---4---2-|-(2)---2---2---2---2---2---2---2-|
A|-2--2--2---2---2---0-|-(0)---0---0---0---0---0---0---0-|
E|---------------------|---------------------------------|

E|---------------------------------|--------------------------|
B|---------------------------------|-5--5---5-(5)-------5---5-|
G|-2---2---2---2---2---2---2---2---|-9--9---9-(9)---9---9---9-|
D|-2---2---2---2---2---2---2---2---|-9--9---9-(9)---9---9---9-|
A|-0---0---0---0---0---0---0---0---|-7--7---7-(7)---7---7---7-|
E|---------------------------------|--------------------------|

E|----------------------------|--------------------------|
B|----------------------------|--------------------------|
G|----------------------------|-2--2---2-(2)---2---2---2-|
D|-6--6---6-(6)---6---6---6---|-2--2---2-(2)---2---2---2-|
A|-6--6---6-(6)---6---6---6---|-0--0---0-(0)---0---0---0-|
E|-4--4---4-(4)---4---4---4---|----------------5---------|

E|---------------------------------|--------------------------|
B|---------------------------------|-5--5---5-(5)-------5---5-|
G|-2---2---2---2---2---2---2---2---|-9--9---9-(9)---9---9---9-|
D|-2---2---2---2---2---2---2---2---|-9--9---9-(9)---9---9---9-|
A|-0---0---0---0---0---0---0---0---|-7--7---7-(7)---7---7---7-|
E|---------------------------------|--------------------------|

E|----------------------------|--------------------------|
B|----------------------------|--------------------------|
G|----------------------------|-2--2---2-(2)---2---2---2-|
D|-6--6---6-(6)---6---6---6---|-2--2---2-(2)---2---2---2-|
A|-6--6---6-(6)---6---6---6---|-0--0---0-(0)---0---0---0-|
E|-4--4---4-(4)---4---4---4---|----------------5---------|

E|---------------------------------|--------------------------|
B|---------------------------------|-5--5---5-(5)-------5---5-|
G|-2---2---2---2---2---2---2---2---|-9--9---9-(9)---9---9---9-|
D|-2---2---2---2---2---2---2---2---|-9--9---9-(9)---9---9---9-|
A|-0---0---0---0---0---0---0---0---|-7--7---7-(7)---7---7---7-|
E|---------------------------------|--------------------------|

E|----------------------------|--------------------------|
B|----------------------------|--------------------------|
G|----------------------------|-2--2---2-(2)---2---2---2-|
D|-6--6---6-(6)---6---6---6---|-2--2---2-(2)---2---2---2-|
A|-6--6---6-(6)---6---6---6---|-0--0---0-(0)---0---0---0-|
E|-4--4---4-(4)---4---4---4---|----------------5---------|

E|---------------------------------|--------------------------|
B|---------------------------------|-5--5---5-(5)-------5---5-|
G|-2---2---2---2---2---2---2---2---|-9--9---9-(9)---9---9---9-|
D|-2---2---2---2---2---2---2---2---|-9--9---9-(9)---9---9---9-|
A|-0---0---0---0---0---0---0---0---|-7--7---7-(7)---7---7---7-|
E|---------------------------------|--------------------------|

E|----------------------------|--------------------------|
B|----------------------------|--------------------------|
G|----------------------------|-2--2---2-(2)---2---2---2-|
D|-6--6---6-(6)---6---6---6---|-2--2---2-(2)---2---2---2-|
A|-6--6---6-(6)---6---6---6---|-0--0---0-(0)---0---0---0-|
E|-4--4---4-(4)---4---4---4---|----------------5---------|

E|---------------------------------|---------------------|-----------------*-|
B|---------------------------------|-0--0--0---0---0-----|-----------------*-|
G|-2---2---2---2---2---2---2---2---|-4--4--4---4---4---2-|-(2)-------------*-|
D|-2---2---2---2---2---2---2---2---|-4--4--4---4---4---2-|-(2)-------------*-|
A|-0---0---0---0---0---0---0---0---|-2--2--2---2---2---0-|-(0)-------------*-|
E|---------------------------------|---------------------|-----------------*-|
comments powered by Disqus
Наверх