Аккорды Green Day - Macy's Day Parade

Добавлено: @romashka
Дата добавления: 16 Марта 2013г.
Рейтинг:
0.0
Просмотров: 416
Транспонировать - +
------------------------------------------------------------------------------
-4-4-x-4-4-4-x-4-4-4-x-4-4-4-x-4-4-4-x-4-4-4-x-4-4-4-x-4-4-4-x----------------
-4-4-x-4-4-4-x-4-4-4-x-4-4-4-x-4-4-4-x-4-4-4-x-4-4-4-x-4-4-4-x----------------
-4-4-x-4-4-4-x-4-4-4-x-4-4-4-x-4-4-4-x-4-4-4-x-4-4-4-x-4-4-4-x----------------
-2-2-x-2-2-2-x-2-2-2-x-2-2-2-x-2-2-2-x-2-2-2-x-2-2-2-x-2-2-2-x----------------
------------------------------------------------------------------------------


------------------------------------------------------------------------------
-------------------------------0-0-0-x-0-0-0----------------------------------
-------------------------------x-x-x-x-x-x-x----------------------------------
-6-6-x-6-6-6-x-6-6-6-x-6-6-6-x-2-2-2-x-2-2-2-x-4-4-4-x-4-4-4-x----------------
-6-6-x-6-6-6-x-6-6-6-x-6-6-6-x-2-2-2-x-2-2-2-x-4-4-4-x-4-4-4-x----------------
-4-4-x-4-4-4-x-4-4-4-x-4-4-4-x-0-0-0-x-0-0-0-x-2-2-2-x-2-2-2-x----------------
Play these 2 lines 2x those upper notes are optional

------------------------------------------------------------------------------
-4-4-x-4-4-4-x-4-4-4-x-4-4-4-x------------------------------------------------
-4-4-x-4-4-4-x-4-4-4-x-4-4-4-x------------------------------------------------
-4-4-x-4-4-4-x-4-4-4-x-4-4-4-x------------------------------------------------
-2-2-x-2-2-2-x-2-2-2-x-2-2-2-x------------------------------------------------
------------------------------------------------------------------------------


------------------------------------------------------------------------------
-0-0-x-0-0-0-x-0-0-0-x-0-0-0-x------------------------------------------------
-x-x-x-x-x-x-x-x-x-x-x-x-x-x-x------------------------------------------------
-2-2-x-2-2-2-x-2-2-2-x-2-2-2-x-4-4-4-x-4-4-4-x-4-4-4-x-4-4-4-x----------------
-2-2-x-2-2-2-x-2-2-2-x-2-2-2-x-4-4-4-x-4-4-4-x-4-4-4-x-4-4-4-x----------------
-0-0-x-0-0-0-x-0-0-0-x-0-0-0-x-2-2-2-x-2-2-2-x-2-2-2-x-2-2-2-x----------------
Play this line 2x Now Play all 4 lines (Line 4 only once)

------------------------------------------------------------------------------
------------------------------------------------------------------------------
-4-4-4-4-3-3-3-3--------------------------------------------------------------
-4-4-4-4-3-3-3-3-6-6-6-6-4-4-4-4-2-2-2-2-2-2-2-2-4-4-4-4-4-4-4-4--------------
-2-2-2-2-1-1-1-1-6-6-6-6-4-4-4-4-2-2-2-2-2-2-2-2-4-4-4-4-4-4-4-4--------------
-----------------4-4-4-4-2-2-2-2-0-0-0-0-0-0-0-0-2-2-2-2-2-2-2-2--------------
Now Play Lines 1-5 (Line 4 2x, Line 5 2x)

---------------------------------0--------------------------------------------
---------------------------------0--------------------------------------------
-4-4-4-4-3-3-3-3-----------------x--------------------------------------------
-4-4-4-4-3-3-3-3-6-6-6-6-4-4-4-4-2---------------4-4-4-4-4-4-4-4--------------
-2-2-2-2-1-1-1-1-6-6-6-6-4-4-4-4-2---------------4-4-4-4-4-4-4-4--------------
-----------------4-4-4-4-2-2-2-2-0---------------2-2-2-2-2-2-2-2--------------
strum a little

------------------------------------------------------------------------------
-4-4-x-4-4-4-x-4-4-4-x-4-4-4-x-4-4-4-x-4-4-4-x-4-4-4-x-4-4-4-4----------------
-4-4-x-4-4-4-x-4-4-4-x-4-4-4-x-4-4-4-x-4-4-4-x-4-4-4-x-4-4-4-4----------------
-4-4-x-4-4-4-x-4-4-4-x-4-4-4-x-4-4-4-x-4-4-4-x-4-4-4-x-4-4-4-4----------------
-2-2-x-2-2-2-x-2-2-2-x-2-2-2-x-2-2-2-x-2-2-2-x-2-2-2-x-2-2-2-2----------------
------------------------------------------------------------------------------


------------------------------------------------------------------------------
------------------------------------------------------------------------------
------------------------------------------------------------------------------
------------------------------------------------------------------------------
------------------------------------------------------------------------------
------------------------------------------------------------------------------


------------------------------------------------------------------------------
------------------------------------------------------------------------------
------------------------------------------------------------------------------
------------------------------------------------------------------------------
------------------------------------------------------------------------------
------------------------------------------------------------------------------
comments powered by Disqus
Наверх