Аккорды Green Day - Minority

Добавлено: @romashka
Дата добавления: 16 Марта 2013г.
Рейтинг:
0.0
Просмотров: 424
Транспонировать - +
E||--------------------------|-----------------0--------|
B||-----------1--------------|--3--------1--------1-----|
G||-----0--------0-----0-----|-----0--------2--------0--|
D||--------2--------------0--|--------3-----------------|
A||--3-----------------------|--------------------------|
E||-----------------3--------|--------------------------|



--------------------------|--------------------------|--------||
--------------------------|-----------------3--------|--------||
-----------1--------------|--1--------0--------0--2--|--0-----||
--------0-----0--------0--|-----0--------0--------3--|--2-----||
--0--2-----------0--2-----|--------------------------|-----2--||
--------------------------|--------3-----------------|-----3--||



E||--0---------------------|-------0---------------|--0---------------------|
B||-------3--1--1----1--1--|--3----1----1----------|-------3--1--1----1--1--|
G||------------------------|--4---------2----2--0--|------------------------|
D||------------------------|-----------------------|------------------------|
A||------------------------|-----------------------|------------------------|
E||------------------------|-----------------------|------------------------|



-------0-------------|--0---------------------|-------0---------------|
--3----1----1--------|-------3--1--1----1--1--|--3----1----1----------|
--4---------2--------|------------------------|--4---------2----2--0--|
---------------------|------------------------|-----------------------|
---------------------|------------------------|-----------------------|
---------------------|------------------------|-----------------------|



--0---------------------|-------0--------------||-----------------------|
-------3--1--1----1--1--|--3----1----1------1--||---1------1--0--0------|
------------------------|--4---------2---------||*----------------------|
------------------------|----------------------||*----------------------|
------------------------|----------------------||-----------------------|
------------------------|----------------------||-----------------------|



------------------------|-------------------------|---------------------0--|
--1--1--0------------1--|--1--1--1--1--0----1--1--|--1--1--0--1--3---------|
-----------2--0---------|-------------------------|------------------------|
------------------------|-------------------------|------------------------|
------------------------|-------------------------|------------------------|
------------------------|-------------------------|------------------------|



--0--------------------|------------------------|-------------------------|
-------3--1--3------1--|--1--1--0---------------|--1--1--1----1--1--1--1--|
-----------------------|-----------2--0------0--|-------------------------|
-----------------------|------------------------|-------------------------|
-----------------------|------------------------|-------------------------|
-----------------------|------------------------|-------------------------|



------------------------|--0---------------------|-------0-------------|
--1--1--1--1--1----1----|-------3--1--1----1--1--|--3----1----1--------|
------------------------|------------------------|--4---------2--------|
------------------------|------------------------|---------------------|
------------------------|------------------------|---------------------|
------------------------|------------------------|---------------------|



--0---------------------|-------0-------------|--0---------------------|
-------3--1--1----1--1--|--3----1----1--------|-------3--3--1----1--1--|
------------------------|--4---------2--------|------------------------|
------------------------|---------------------|------------------------|
------------------------|---------------------|------------------------|
------------------------|---------------------|------------------------|



-------0---------------|--0---------------------|-------0-------------|
--3----0----1----------|-------3--1--1----1--1--|--0----1----1--------|
--4---------2----2--0--|------------------------|--7---------2--------|
-----------------------|------------------------|---------------------|
-----------------------|------------------------|---------------------|
-----------------------|------------------------|---------------------|



----------------------|--------------------|--0----0----0---------|
--1----1----1----0----|--0-----------------|--1----1----1----3----|
----------------------|-------2------------|-----------------4----|
----------------------|--------------------|----------------------|
----------------------|--------------------|----------------------|
----------------------|--------------------|----------------------|



---------------------|----------------------|--------------------|
--0----3----3--------|--1----1----1----0----|--0-----------------|
--7----4----0--------|----------------------|-------2------------|
---------------------|----------------------|--------------------|
---------------------|----------------------|--------------------|
---------------------|----------------------|--------------------|



------------0---------|---------------------|-------------------------||
--1----1---------1----|--3--3------------3--|--3--3--3--3--3------3---||
----------------------|---------------------|------------------------*||
----------------------|---------------------|------------------------*||
----------------------|---------------------|-------------------------||
----------------------|---------------------|-------------------------||



------------------|------------------|------------------|------------------|
------------------|------------------|------------------|------------------|
------------------|------------------|------------------|------------------|
------------------|------------------|------------------|------------------|
------------------|------------------|------------------|------------------|
------------------|------------------|------------------|------------------|



------------------|-------------------|-------0-------------|
------------------|----------------1--|--3----1----1--------|
------------------|-------------------|--4---------2--------|
------------------|-------------------|---------------------|
------------------|-------------------|---------------------|
------------------|-------------------|---------------------|



------------------------|-------0-------------|-------------------|
--1----1--1--1----1--1--|--3----1----1--------|-------------------|
------------------------|--4---------2--------|----------------5--|
------------------------|---------------------|-------------------|
------------------------|---------------------|-------------------|
------------------------|---------------------|-------------------|



--------------------|-----------8--------|--------------------|
--5--------6--------|--8-----------------|--8--------6--------|
--------------------|--------------------|--------------------|
--------------------|--------------------|--------------------|
--------------------|--------------------|--------------------|
--------------------|--------------------|--------------------|



---------------------|--------------------|-------0-------------|
--5------------------|--5--------6--------|--3----1----1--------|
-----------5----5----|--------------------|--4---------2--------|
---------------------|--------------------|---------------------|
---------------------|--------------------|---------------------|
---------------------|--------------------|---------------------|



------------------------|---------------------|-----------8~---3----|
--1----1--1--1----1--1--|--1----1----1--------|--8------------------|
------------------------|---------------------|---------------------|
------------------------|---------------------|---------------------|
------------------------|---------------------|---------------------|
------------------------|---------------------|---------------------|



--8--------3--------|--8----------------||
--------------------|-------------------||
--------------------|-------------------||
--------------------|-------------------||
--------------------|-------------------||
--------------------|-------------------||
comments powered by Disqus
Наверх