Аккорды Green Day - I Want To Be Alone

Добавлено: @romashka
Дата добавления: 16 Марта 2013г.
Рейтинг:
0.0
Просмотров: 407
Транспонировать - +
INTRO/VERS
E|----------------------------------------------------|
B|----------------------------------------------------|
G|-----------------------------------7--9--7--9--7--9-|
D|-----0-0-7-0-0-5-0-0-7-0-0-5-0-0-7-7--9--7--9--7--9-|
A|-0-0-------------------------------5--7--5--7--5--7-|
E|----------------------------------------------------|

CHORUS
E|-----------------------------------------------|
B|-----------------------------------------------|
G|-2-2-2-2-2-4-4-4-4-4-4-4-9-9-9-7-7-7-7-7-7-2-2-|
D|-2-2-2-2-2-4-4-4-4-4-4-4-9-9-9-7-7-7-7-7-7-2-2-|
A|-0-0-0-0-0-2-2-2-2-2-2-2-7-7-7-5-5-5-5-5-5-0-0-|
E|-----------------------------------------------|

E|-------------------------------------------------|
B|-------------------------------------------------|
G|-2-2-2-4-4-4-4-4-4-4-9-9-9-7-7-7-7-7-7-2-2-2-2-2-|
D|-2-2-2-4-4-4-4-4-4-4-9-9-9-7-7-7-7-7-7-2-2-2-2-2-|
A|-0-0-0-2-2-2-2-2-2-2-7-7-7-5-5-5-5-5-5-0-0-0-0-0-|
E|-------------------------------------------------|

--------------------------------------------------------|
--------------------------------------------------------|
4-4-4-4-4-4-4-9-9-9-7-7-7-7-7-7-2-2-2-2-2-4-4-4-4-4-4-4-|
4-4-4-4-4-4-4-9-9-9-7-7-7-7-7-7-2-2-2-2-2-4-4-4-4-4-4-4-|
2-2-2-2-2-2-2-7-7-7-5-5-5-5-5-5-0-0-0-0-0-2-2-2-2-2-2-2-|
--------------------------------------------------------|

E|----------------------------------------|
B|----------------------------------------|
G|-----------------------------------9--7-|
D|-----0-0-7-0-0-5-0-0-7-0-0-5-0-0-7-9--7-|
A|-0-0-------------------------------7--5-|
E|----------------------------------------|

E|--------------|
B|--------------|
G|9--7--9--7--9-|
D|9--7--9--7--9-|
A|7--5--7--5--7-|
E|--------------|

SOLO RIFFS
I did the Number 3 solo so shity...

SOLO RIFF1
E|---------------------------------------------|
B|-12----12---------------------------12-12----|
G|-------------9-11-12----12----12----------11-|
D|----12----12---------12----12----12----------|
A|---------------------------------------------|
E|---------------------------------------------|

SOLO RIFF2
E|-------------12-------------------------------|
B|-------12----------------------12-12-12-12----|
G|-12----------------12----12-12----------------|
D|----12----12----12----12-------------------14-|
A|----------------------------------------------|
E|----------------------------------------------|

SOLO RIFF3
Well,this is fast,and i KNOW that this ain't
right,really ain't right... but Whatever.
E|---------------------------------------------|
B|-12-12-12-12^--12-14-16--16-16^--16-16-16p14-|
G|---------------------------------------------|
D|---------------------------------------------|
A|---------------------------------------------|
E|---------------------------------------------|

E|-------------------------------------------------|
B|----------16-16-16p14----------19-19-19-17-17-17-|
G|-16-13-16-------------16-13-16-------------------|
D|-------------------------------------------------|
A|-------------------------------------------------|
E|-------------------------------------------------|

-------------------------------------------------------|
16-16-16-14-14-14--------------------------------------|
------------------16-16-14-14--------------------------|
---------------------------16-16-14-14-----------------|
---------------------------------------16-16-14-14-----|
---------------------------------------------------16^-|

E|----------------------------------------|
B|-12-12-12-12-12-12-12-12-12-12-12-12-12-|
G|----------------------------------------|
D|----------------------------------------|
A|----------------------------------------|
E|----------------------------------------|
comments powered by Disqus
Наверх