Аккорды Green Day - Armatage Shanks

Добавлено: @romashka
Дата добавления: 16 Марта 2013г.
Рейтинг:
0.0
Просмотров: 369
Транспонировать - +
intro

|---------------------------------------|
|---------------------------------------|
|-9-9-9-9-9-9-9-9-9-9-9-9-9-9-9-9-9-9-9-|
|-9-9-9-9-9-9-9-9-9-9-9-9-9-9-9-9-9-9-9-|
|-7-7-7-7-7-7-7-7-7-7-7-7-7-7-7-7-7-7-7-|
|---------------------------------------|

verse

|---------------------------------------------------------
|---------------------------------------------------------
|-------------7-7-7-7-7-7-7-7-------------7-7-7-7-7-7-7-7-
|-7-7-7-7-7-7-7-7-7-7-7-7-7-7-7-7-7-7-7-7-7-7-7-7-7-7-7-7-
|-7-7-7-7-7-7-5-5-5-5-5-5-5-5-7-7-7-7-7-7-5-5-5-5-5-5-5-5-
|-5-5-5-5-5-5-----------------5-5-5-5-5-5-----------------

-------------------------------------------|
-------------------------------------------|
-------------7-7-7-7-7-7-------------------|
-4-4-4-4-4-4-7-7-7-7-7-7-2-2-2-2-2-2-2-2-2-|
-4-4-4-4-4-4-5-5-5-5-5-5-2-2-2-2-2-2-2-2-2-|
-2-2-2-2-2-2-------------0-0-0-0-0-0-0-0-0-|

chorus

|---------------------------------------------------------
|---------------------------------------------------------
|-7-7-7-7-7-7-----------------9-9-9-9-9-9-----------------
|-7-7-7-7-7-7-7-7-7-7-7-7-7-7-9-9-9-9-9-9-7-7-7-7-7-7-7-7-
|-5-5-5-5-5-5-7-7-7-7-7-7-7-7-7-7-7-7-7-7-7-7-7-7-7-7-7-7-
|-------------5-5-5-5-5-5-5-5-------------5-5-5-5-5-5-5-5-

---------------------------------------------------|
---------------------------------------------------|
-7-7-7-7-7-7-----------------9-9-9-9-9-9-9-9-9-9-9-|
-7-7-7-7-7-7-7-7-7-7-7-7-7-7-9-9-9-9-9-9-9-9-9-9-9-|
-5-5-5-5-5-5-7-7-7-7-7-7-7-7-7-7-7-7-7-7-7-7-7-7-7-|
-------------5-5-5-5-5-5-5-5-----------------------|

bridge

|---------------------------------------------------------
|---------------------------------------------------------
|---------------------------------------------------------
|-7-7-7-7-7-7-4-4-4-4-4-4-4-4-7-7-7-7-7-7-4-4-4-4-4-4-4-4-
|-7-7-7-7-7-7-4-4-4-4-4-4-4-4-7-7-7-7-7-7-4-4-4-4-4-4-4-4-
|-5-5-5-5-5-5-2-2-2-2-2-2-2-2-5-5-5-5-5-5-2-2-2-2-2-2-2-2-

---------------------------------------------------------|
---------------------------------------------------------|
-7-7-7-7-7-7-7-7-7-7-7-7-7-7-9-9-9-9-9-9-9-9-9-9-9-9-9-9-|
-7-7-7-7-7-7-7-7-7-7-7-7-7-7-9-9-9-9-9-9-9-9-9-9-9-9-9-9-|
-5-5-5-5-5-5-5-5-5-5-5-5-5-5-7-7-7-7-7-7-7-7-7-7-7-7-7-7-|
---------------------------------------------------------|

lyrics

stranded... lost inside myself
my own worst friend my own closest enemy
branded... maladjusted
never trusted anyone let alone myself
i must insist on being a pessimist
i'm a loner in a catastrophic mind
elected the rejected
i perfected the science of the idiot
no meaning... no healing
self loathing freakand introverted deviot
comments powered by Disqus
Наверх