Аккорды «Muse»

Muse
Muse (читается «мьюз», англ. - муза) – британская альтернативная рок-группа, образованная в 1994 году в городе Тинмут (графство Девон), Великобритания. Сегодня Muse называют одним из величайших наследий рок-музыки нового тысячелетия. Музыка, словно пришедшая к нам из другой Галактики, страстное исполнение, сильнейший театральный вокал, виртуозные гитарные партии, ураганной мощи живые выступления - все это Muse! Группа состоит из трёх участников: Мэтью Беллами (англ. Matthew Bellamy, вокалист,… Читать полностью... Muse (читается «мьюз», англ. - муза) – британская альтернативная рок-группа, образованная в 1994 году в городе Тинмут (графство Девон), Великобритания. Сегодня Muse называют одним из величайших наследий рок-музыки нового тысячелетия. Музыка, словно пришедшая к нам из другой Галактики, страстное исполнение, сильнейший театральный вокал, виртуозные гитарные партии, ураганной мощи живые выступления - все это Muse! Группа состоит из трёх участников: Мэтью Беллами (англ. Matthew Bellamy, вокалист, гитарист и клавишник), Криса Уолстенхолма (англ. Chris Wolstenholme, бас-гитарист, бэк-вокал) и Доминика Ховарда (англ. Dominic Howard, барабанщик и перкуссионист). Всего группа выпустила семь студийных альбомов. Muse за свою карьеру стали пятикратными обладателями наград MTV Europe Music Awards, получили пять наград Q Awards, восемь — NME Awards, две BRIT awards и четыре Kerrang! Awards. Большая часть этих наград получена ими за их концертные выступления. в 2011 году группа была удостоена премии Grammy в номинации "Лучший рок-альбом" за пластинку "Resistance". Официальный состав - Мэттью Беллами — вокал, гитара, клавишные, клавитара, синтезаторы. - Крис Уолстенхолм — бэк-вокал, бас-гитара, губная гармошка, кларнет. - Доминик Ховард— ударные, перкуссия, синтезаторы. Сессионные музыканты - Морган Николлз — клавиатура, сэмплы, бэк-вокал, перкуссия, бас (2004, 2006—2009, 2009—настоящее время). - Алессандро Кортини — клавишные, сэмплы, бэк-вокал, перкуссия (2009). - Пол Рив — бэк-вокал на «Showbiz» и «Absolution». - Джеклайн Норри — скрипка на «Origin of Symmetry». - Сaра Герберт — скрипка на «Origin of Symmetry». - Клэр Финнимор — альт на «Origin of Symmetry». - Кэролайн Лэвелл — виолончель на «Origin of Symmetry». История группы Формирование и ранние годы (1992-1997) В ранних девяностых Мэтт, Дом и Крис играли в разных коллективах в Тинмутской школе. Формирование Muse началось после того, как Мэттью Беллами стал гитаристом в группе Дома Ховарда. Они попали в трудную ситуацию, когда их второй гитарист Фис Вандит (Phys Vandit) решил уйти. Тогда они попросили своего близкого друга Криса Уолстенхолма научиться играть на басу. С тех пор группа сменила кучу названий, называясь Gothic Plague, Carnage. Mayhem, Fixed Penalty и Rocket Baby Dolls, прежде чем стать Muse (перечисление абстрактное, сведения в разных интервью отличаются друг от друга). В 1994 году, под названием Rocket Baby Dolls Muse выиграли местную «Битву групп», разрушив в процессе выступления своё оборудование. (Они были «единственной настоящей рок-группой»).Вскоре после этого они решили не поступать в университет, а погрузиться в музыкальную среду. Они сменили название на Muse и начали выступать в местных клубах в роде «The Cavern» в Экзетере. Первые EP и Showbiz (1998—2000) После нескольких лет формирования столичной фан-базы, Muse отыграли свои первые концерты в Лондоне и в Манчестере. Группа встретилась с Деннисом Смитом, владельцем Sawmills, звукозаписывающей студии в переоборудованной мельнице в Корнуолле, в Юго-Западной Англии и заключили с ним контракт. Эта встреча привела их к их первым настоящим записям и выпуску силами соумиллского лейбла Dangerous одноимённого EP с лицом Дома, использованным в дизайне. Их второй EP, «Muscle Museum» (январь 1999) включал две версии заглавной композиции и песни «Sober», «Uno», «Unintended» и «Instant Messenger». Релиз привлёк внимание влиятельного британского музыкального журналиста Стива Ламака (Steve Lamacq). Ламак, также DJ на Radio One, первым поставивший Muse на национальном радио, вспоминает: «Это была одна из тех интересных записей, которые не вписываются в то, что звучит везде. Она немедленно получила прекрасные отклики слушателей». Сами Muse, хоть и не отрицают влияния, изо всех сил стремятся утвердить свою самостоятельность. Беллами говорит: «Я много мотался по Европе после того, как закончил колледж. Хорошо подвергаться множеству влияний, помимо нескольких узких трендов, которыми довольствуется подавляющее большинство людей». Позднее Деннис Смит основал музыкальную компанию Taste Media специально для Muse (группа осталась с ней на три первых альбома). Это было большой удачей для группы, так как позволило сохранить индивидуальность их звучания раннего периода их карьеры. Вопреки успеху их первых EP британские рекорд-компании отказывались поддержать Muse, будучи озабоченными тем, что звучание Muse напоминало Radiohead (времён «The Bends)»". Тем не менее американский Maverick Records организовал группе несколько выступлений в США, прежде чем подписать их в конце 1998 года. По возвращении группы в Великобританию Taste Media заключила сделки с различными лейблами в Европе и Австралии. К работе над первым альбомом Muse – «Showbiz» – был привлечён Джон Леки, который продюсировал вышеупомянутый «The Bends», The Stone Roses, The Verve. Альбом отразил агрессивно-лиричный стиль группы, а его тексты содержали множество ссылок на трудности, которые им пришлось преодолеть, чтобы утвердиться в Тинмуте. После выхода альбома группа отправилась в тур на разогреве у групп Foo Fighters и Red Hot Chili Peppers. Origin of Symmetry (2001—2002) С ноября 2002 г. Muse опять начали наведываться в студию вместе с продюсерами Джоном Корнфильдом (John Cornfield) и Полом Ривом (Paul Reeve). Сначала было записано три-четыре песни, но потом группа сменила продюсера, и помогал доделывать альбом уже американец Рич Кости (Rich Costey). Во время производства этого альбома музыканты экспериментировали с различными инструментами, такими, как церковный орган и меллотрон. В звуке было больше знаменитого фальцета Беллами, агрессивных гитарных линий и клавишных. На альбоме явно заметен переход от бури эмоций, которые наполняли предыдущий альбом Muse, к более взвешенным и тонким лирически-депрессивным настроениям. Наиболее вероятным представляется, что у Мэтта возникли проблемы с самоидентификацией в результате резко возросшей популярности. Известно лишь, что Мэтт осознавал то изменение звучания альбома, которое в итоге вышло, и очень переживал по поводу того, как его воспримут слушатели. Maverick посчитали, что фальцет Беллами не благоприятен для выпуска альбома на радио, и потребовал изменить некоторые песни для релиза альбома в США. Группа отказалась и оставила лейбл, из-за чего альбом был наконец выпущен в США только 20 сентября 2005, после того, как Muse заключили контракт с Warner. Muse выпустили концертный DVD, «Hullabaloo», с записью двух последовательных концертов в Le Zenith в Париже в 2001 году. Выпущенный в то же время на двух CD альбом с тем же названием содержал B-sides и аудиозапись концерта в Le Zenith. В феврале 2006 журнала Q поместил «Origin of Symmetry» на 74-ое место в списке 100 величайших альбомов планеты. Absolution (2003—2005) «Absolution» (продюсер Рич Кости) был выпущен в 2003 году и дебютировал на первой строчке британского чарта. Многие песни с этого альбома — «Time Is Running Out», «Hysteria», «Sing for Absolution», «Butterflies and Hurricanes» — стали хитами. Альбом изначально планировалось записать поднимающим настроение, с мощным оркестровым сопровождением. Однако произошло несколько событий, в результате которых все сильно изменилось. Формально, если верить сайту MuseAndaMuse, причиной было нападение США и Британии на Ирак, что привело к решению группы сделать более апокалиптичное и трагичное звучание. Для этого были перемикшированы некоторые оркестровые партии с целью притушевать их и добавить драматичности. Более реальным является просто смена настроений Мэтта и непрекращающиеся депрессии. Кстати, в этот же период некоторые профессиональные музыкальные издания называют Muse «лучшим концертирующим рок-составом планеты», забыв на время первенство U2 в этой категории. Muse отправились в свой первый тур по стадионам планеты, который длился около года, в течение которого музыканты посетили Австралию, Новую Зеландию, США, Канаду и Францию. Было выпущено пять синглов («Time Is Running Out», «Hysteria», «Sing for Absolution», «Stockholm Syndrome» и «Butterflies and Hurricanes»). Американская часть тура началсь несколько неудачно, поскольку Беллами ранил себе лицо во время концерта в Атланте. Muse стали хедлайнерами фестиваля Гластонбери в июне 2004. Беллами назвал этот концерт «лучшим гигом в нашей жизни». Однако удача была омрачена тем, что отец Дома, Билл Ховард, присутствовавший на фестивале, умер от сердечного приступа сразу после окончания концерта. «Это было почти ирреально, что час спустя его отец умер. Это казалось не правдоподобным. Мы потратили много времени, пытаясь поддержать Дома. Я думаю, что его утешало то обстоятельство, что, по крайней мере, его отец увидел один из лучших моментов нашего творчества». Muse вскорости возобновили свой тур. Они выиграли две награды MTV Europe, включая номинацию «лучшая альтернативная группа» и Q Award в номинации «лучший концерт». Группа завершила тур в январе 2005. 12 декабря 2005 был выпущен DVD «Absolution Tour», содержавший съемку лучших концертов от Гластонбери 2004 до концертов на London Earls Court, стадионе Уэмбли и в Wiltern Theatre в Лос-Анджелесе. Две песни, «Endlessly» and «Thoughts Of A Dying Atheist», были сняты на стадионе Уэмбли. Единственная песня с альбома, которой нет на этом диске — «Falling Away With You», так как она никогда не исполнялась на концертах до настоящего времени. Black Holes And Revelations (2006) 2 июля 2006 г. Muse выпустила 4-й студийный альбом «Black Holes and Revelations». Этот диск стал одним из самых успешных за всю историю группы: в первую же неделю продаж он разошелся тиражом более ста тысяч экземпляров. Альбом был выпущен в Японии 28 июня 2006, в Европе 3 июля 2006 и в Северной Америке 11 июля 2006, и покорил вершины британского и многих европейских чартов. В США альбом дебютировал на девятой строчке чарта Billboard 200. «Black Holes and Revelations» стал платиновым, будучи проданным в Европе более миллиона раз. Первый сингл с альбома, «Supermassive Black Hole», был выпущен как звуковая загрузка 9 мая 2006 и сопровождался клипом, снятым Floria Sigismondi. 4 сентября 2006 был выпущен второй сингл, «Starlight». «Knights of Cydonia» был выпущен как сингл для радио в США 13 июня и в Великобритании 27 ноября 2006 года. Тур группы начался с Северной Америки. После последнего из летних фестивалей начался тур по Европе, включая большое количество выступлений на аренах Великобритании. Тур продолжался концертами в Австралии, Новой Зеландии и Юго-Восточной Азии в начале 2007 года, и возвратился в Англию грандиозными концертами, первыми на восстановленном стадионе Уэмбли 16 и 17 июня. Оба концерта были записаны и вышли на альбоме HAARP, выпущенном 17 марта 2008 года в Великобритании и 1 апреля в США. Название взято от американской научно-исследовательской программы HAARP, изучающей возможность контроля над ионосферой. В августе группа вернулась в США, где играла в Madison Square Garden в Нью-Йорке. В октябре они выступили в Лас-Вегасе вместе с Rage Against the Machine, Daft Punk, и Queens of the Stone Age. Тур был продолжен посещением России, где было дано два концерта в Москве и Санкт-Петербурге. В 2008 также было дано много концертов. В марте группа выступила в Африке — в Дубаи, Иоханнесбурге и Кейптауне. Muse сыграли на фестивале Рио Лисбоа 6 июня, вместе с Kaiser Chiefs, The Offspring и Linkin Park. The Resistance (2009) В интервью, данном журналу «Rock Mag» в мае 2008, и опубликованном в июльском номере, Беллами подтвердил информацию о начале работы над новым альбомом. Часть песен звучит в электронном или танцевальном ключе, часть — скорее симфоническая или классическая. Музыканты даже пригласили оркестр для их записи. Также Мэттью заявил, что для достижения большей свободы в звучании, они будут продюсировать альбом самостоятельно. «The Resistance» был выпущен 11 сентября в Италии, Германии и Австралии и Бенилюксе, 14 сентября в Великобритании, и 15 сентября в США и Канаде. Это — первый альбом, который был продюсирован самой группой. Сведением занимался Марк Стент. За первую неделю было продано 451 тысяча копий альбома, что стало рекордом для группы и для Великобритании вообще в этом году. «The Resistance» дебютировал на первой строчке в чартах 19 стран и достиг #3 в американском чарте. Это был лучший результат, чем у предыдущего альбома. Первый сингл, «Uprising», вышел неделей раньше. К настоящему моменту выпущено два сингла с этого альбома — «Uprising», «Undisclosed Desires» Третий сингл — «Resistance» — вышел в свет 22 февраля 2010. Resistance-тур группы начался концертом 22 октября 2009 года на Hartwall Arena в Финляндии. Февраль-март Muse будут играть концерты в Америке. Летом же станут участниками многих фестивалей, в том числе Rock in Rio, Coachella, Гластонбери-2010. Последней объявленной датой тура на данный момент являются концерты на стадионе Уэмбли 10 и 11 сентября 2010 года, однако есть данные, что осенью 2010 тур пересечет океан и вернется в Австралию, о чем Беллами заявил в интервью на Big Day Out 2010. [7] Кроме того, ремикс на песню Resistance сделал диск-жокей Tiësto. Музыкальный стиль Музыка Muse эклектична, помимо основы альтернативного рока она впитывает в себя элементы самых разных направлений. Среди наиболее узнаваемых черт группы — чрезвычайно высокий вокал (фальцет) Мэтта Беллами, гитарные риффы, частое использование фортепиано, а на поздних альбомах — оркестровых аранжировок. В последние годы звучание группы стало менее тяжёлым, а использование оркестровых и фортепианных аранжировок, напротив, участилось. Среди наиболее повлиявших на Muse групп называют Radiohead и Queen. Первый альбом группы, Showbiz, даже получил негативные отзывы в прессе за «копирование» Radiohead. Кроме того, Беллами — поклонник музыки русского композитора Сергея Рахманинова, произведения которого он иногда цитирует в песнях. Награды Muse была семь раз номинирована в Brit Awards, став два раза победителем; оба раза в категории «Best Live Act», в 2005 и снова в 2007. Группа также четыре раза побеждала в MTV Europe Music Awards, в номинациях «Best Alternative Act» в 2004 и 2006 и «Best UK & Irish Act» в 2004 и 2007. Альбом «Black Holes & Revelations» победил в номинации «Best British Album» на Brit Awards и был признан лучшим альбомом MTV Europe Music Awards и NME Awards. NME Awards награждали группу в номинациях «Best Live Band» в 2005, 2008 и 2009 годах; «Best British Band» в 2007, 2010, 2011 и в «Best New Band» в 2000 году. Q Awards также награждали музыкантов как выдающихся живых исполнителей; группа победила в номинации «Best Live Act» в 2003, 2004, и 2006, а в 2009 триумфально взяла вверх в номинации «Best Act in the World Today». В 2011 группа получила Grammy за "Лучший рок-альбом года - "The Resistance". В целом, Muse получили 24 награды из 60 номинаций за свою историю. Также 25 сентября 2008 года Мэттью Беллами, Доминик Ховард и Крис Уолстенхолм были награждены Плимутским университетом степенью почетных докторов искусств. Интересные факты - В декабре 2009 года Ватикан опубликовал список «богоугодных» музыкальных композиций. В этот хит-парад, наряду с Моцартом и диском самого Папы Римского Бенедикта XVI были включены Muse с композицией «Uprising». - На одном из выступлений на итальянском телевидении музыкантов вынудили выступать под фонограмму. На что музыканты решили выразить свой протест, поменявшись перед выступлением инструментами: солист и гитарист Мэттью Беллами сел за ударные, ударник Доминик Ховард встал с бас-гитарой за микрофон, а бас-гитарист Крис Уолстенхолм взял гитару и встал за клавишные. После выступления ударник дал интервью в качестве фронтмена. Во время съемок никто не заподозрил неладное, и в таком виде передача вышла в эфир. - Не так давно Беллами занял 29 место в списке 100 лучших гитаристов мира по версии журнала «Total Guitar», а его рифф из «Plug In Baby», по опросам, оказался на 14 позиции в «Top 100 Riffs». Тот же рифф был отмечен альманахом «Rock and Pop» журнала «Q-magazine» среди лучших когда-либо сыгранных риффов. Вдобавок к этому, по результатам голосования «Top 100 Riffs of all time» австралийской радиостанции «Triple J», рифф из «Stockholm Syndrome» был признан величайшим риффом всех времен, обогнав «Smells Like Teen Spirit» Nirvana и другие не менее легендарные вещи. «Plug In Baby» также вошла в Top 20. - Одна из немногих слабостей, которые Беллами позволяет себе во время гастролей, — игра в покер. У него есть мечта — попасть в программу «Late Night Poker» на Channel 4: «Но там начальная ставка 1500 фунтов, а я еще не такой мастер, чтобы рисковать». Скрыть...
Популярные аккорды Muse:
алфавиту | просмотрам | случайно
  • Intro
    Very, very light distortion sound with maybe
    a touch of phaser or something like that.
    Let ring...
    E|-11----------------11-------------------10-----------------10----------------|
    B|------13-------13--------13--------13--------11--------11--------11-------11-|
    G|-----------12-----------------12-------------------10-----------------10-----|
    D|-----------------------------------------------------------------------------|
    A|-----------------------------------------------------------------------------|
    E|-----------------------------------------------------------------------------|
    
    Matt…
  • Gtr I (E A D G B E) - 'overdrive'
    Gtr II (E A D G B E) - 'Overdrive 2'
    Gtr III (E A D G B E) - 'intro bit'
    Gtr IV (D A D G B E) - 'Overdrive 3'
    Gtr V (E A D G B E) - 'Untitled'
    
    Intro
    Q=118
    N.C.
    4/4
    Gtr I
    Wx12
    |---------|
    |---------|
    |---------|
    |---------|
    |---------|
    |---------|
    
    
    Verse
    N.C.
    Gtr…
  • E|------------------|
    B|----6----6--------|
    G|----5----5--5-4-3-|
    D|----4----4--------|
    A|-5--5--5-5--------|
    E|-0-----0----------|
    
    E|------------------------------------|
    B|----6----6------------6----6--------|
    G|----5----5------------5----5--------|
    D|----4----4------------4----4--------|
    A|-5--5--5-5----3-5--5--5--5-5--3-2-1-|
    E|-0-----0----5------0-----0----------|
    
    E|-10-10-10-10-10-10-10-10-10-10-10-10-10-10-10-10-|
    B|-10-10-10-10-10-10-10-10-10-10-10-10-10-10-10-10-|
    G|-10-10-10-10-10-10-10-10-10-10-10-10-10-10-10-10-|
    D|-12-12-12-12-12-12-12-12-12-12-12-12-12-12-12-12-|
    A|-------------------------------------------------|
    E|-------------------------------------------------|
    
    E|-12-12-12-12-12-12-12-12-12-12-12-12-12-12-12-12-|
    B|-13-13-13-13-13-13-13-13-13-13-13-13-13-13-13-13-|
    G|-14-14-14-14-14-14-14-14-14-14-14-14-14-14-14-14-|
    D|-------------------------------------------------|
    A|-------------------------------------------------|
    E|-------------------------------------------------|
    
    E|-10-10-10-10-10-10-10-10-10-10-10-10-10-10-10-10-|
    B|-12-12-12-12-12-12-12-12-12-12-12-12-12-12-12-12-|
    G|-12-12-12-12-12-12-12-12-12-12-12-12-12-12-12-12-|
    D|-------------------------------------------------|
    A|-------------------------------------------------|
    E|-------------------------------------------------|
    
    E|-10-10-10-10-10-10-10-10-10-10-10-10-10-10-10-10-|
    B|-11-11-11-11-11-11-11-11-11-11-11-11-11-11-11-11-|
    G|-12-12-12-12-12-12-12-12-12-12-12-12-12-12-12-12-|
    D|-------------------------------------------------|
    A|-------------------------------------------------|
    E|-------------------------------------------------|…
  • E|--------------------------------------------------------------------|--------|
    B|--------------------------------------------------------------------|--------|
    G|-10--10------------10--10------------9---9-----------9---9----------|-10--10-|
    D|-10--10--10-10-10--10--10--10-10-10--9---9--7--7--7--9---9--7--7-7--|-10--10-|
    A|--8---8--10-10-10---8---8--10-10-10--7---7--7--7--7--7---7--7--7-7--|--8---8-|
    E|----------8--8--8-----------8--8--8---------5--5--5---------5--5-5--|--------|
    
    E|------------------------------------------------|
    B|------------------------------------------------|
    G|----------h7p0h5p0h4p0---------------------h4p0-|
    D|----h7p0---------------------h7p0h6p0h7p0-------|
    A|------------------------------------------------|
    E|------------------------------------------------|
    
    On…
  • ------------------|------------------|----------------------------------|
    ------------------|------------------|--0-0-0-0-0-0-0-0-0-0-0-0-0-0-0-0-|
    ------------------|------------------|----------------------------------|
    ------------------|------------------|----------------------------------
    
    ----------------------------------|----------------------------------|
    --0-0-0-0-0-0-0-0-0-0-0-0-0-0-0-0-|--0-0-0-0-0-0-0-0-0-0-0-0-0-0-0-0-|
    ----------------------------------|----------------------------------|
    ----------------------------------|----------------------------------|
    
    ----------------------------------|---------------------------------|
    --0-0-0-0-0-0-0-0-0-0-0-0-0-0-0-0-|--0-0-0-0-0-0-0-0-0-0-0-0--------|
    ----------------------------------|--------------------------5-5-5/-|
    ----------------------------------|---------------------------------|
    
    --------------------------------------------------|
    --------------------------------------------------|
    --17-17-17-16-16-16-15-15-15-14-14-14-13-13-12-12/|
    --------------------------------------------------|
    
    ----------------------------------|----------------------------------|
    ----------------------------------|----------------------------------|
    ----------------------------------|----------------------------------|
    --6-6-6-6-6-6-6-6-6-6-6-6-6-6-6-6-|--2-2-2-2-2-2-2-2-2-2-2-2-2-2-2-2-|
    
    ----------------------------------|----------------------------------|
    ----------------------------------|----------------------------------|
    --0-0-0-0-0-0-0-0-0-0-0-0-0-0-0-0-|--0-0-0-0-0-0-0-0-0-0-0-0-0-0-0-0-|
    ----------------------------------|----------------------------------|
    
    ----------------------------------|----------------------------------|
    ----------------------------------|----------------------------------|
    --1-1-1-1-1-1-1-1-1-1-1-1-1-1-1-1-|--------------------------------x2
    ----------------------------------|--0-0-0-0-0-0-0-0-0-0-0-0-0-0-0-0-|
    
    ----------------------------------|----------------------------------|
    ----------------------------------|----------------------------------|
    --1-1-1-1-1-1-1-1-1-1-1-1-1-1-1-1-|----------------------------------|
    ----------------------------------|--3-3-3-3-3-3-3-3-3-3-3-3-3-3-3-3-|
    
    ----------------------------------|----------------------------------|
    ----------------------------------|----------------------------------|
    ----------------------------------|----------------------------------|
    --4-4-4-4-4-4-4-4-4-4-4-4-4-4-4-4-|--5-5-5-5-5-5-5-5-5-5-5-5-5-5-5-5-|
    
    ----------------------------------|----------------------------------|
    ----------------------------------|----------------------------------|
    --1-1-1-1-1-1-1-1-1-1-1-1-1-1-1-1-|--------------------------------x2
    ----------------------------------|--3-3-3-3-3-3-3-3-3-3-3-3-3-3-3-3-|
    
    ----------------------------------|----------------------------------|
    ----------------------------------|----------------------------------|
    --0-0-0-0-0-0-0-0-0-0-0-0-0-0-0-0-|--0-0-0-0-0-0-0-0-0-0-0-0-0-0-0-0-|
    ----------------------------------|----------------------------------|
    
    ------------------------|------------------------|
    ------------------------|------------------------|
    --0---7---4---1------1--|--0---7---4---1------1--|
    ------------------5-----|------------------5-----
    
    ----------------------------------|----------------------------------|
    --0-0-0-0-0-0-0-0-0-0-0-0-0-0-0-0-|--0-0-0-0-0-0-0-0-0-0-0-0-0-0-0-0-|
    ----------------------------------|----------------------------------|
    ----------------------------------|--------------------------------x2
    
    ----------------------------------|------------------------|
    --0-0-0-0-0-0-0-0-0-0-0-0-0-0-0-0-|------------------------|
    ----------------------------------|--5---4---3---2---1--0--|
    ----------------------------------|------------------------|
    
    ----------------------------------|----------------------------------|
    ----------------------------------|----------------------------------|
    ----------------------------------|----------------------------------|
    --6-6-6-6-6-6-6-6-6-6-6-6-6-6-6-6-|--2-2-2-2-2-2-2-2-2-2-2-2-2-2-2-2-|
    
    ----------------------------------|----------------------------------|
    ----------------------------------|-------------------------------x2
    --0-0-0-0-0-0-0-0-0-0-0-0-0-0-0-0-|--0-0-0-0-0-0-0-0-0-0-0-0-0-0-0-0-|
    ----------------------------------|----------------------------------|
    
    ----------------------------------|----------------------------------|
    --0-0-0-0-0-0-0-0-0-0-0-0-0-0-0-0-|----------------------------------|
    ----------------------------------|--5-5-5-5-5-5-5-5-5-5-5-5-5-5-5-5-|
    ----------------------------------|----------------------------------|
    
    ----------------------------------|----------------------------------|
    ----------------------------------|----------------------------------|
    ----------------------------------|----------------------------------|
    --6-6-6-6-6-6-6-6-6-6-6-6-6-6-6-6-|--2-2-2-2-2-2-2-2-2-2-2-2-2-2-2-2-|
    
    ----------------------------------|----------------------------------|
    ----------------------------------|----------------------------------|
    --0-0-0-0-0-0-0-0-0-0-0-0-0-0-0-0-|--0-0-0-0-0-0-0-0-0-0-0-0-0-0-0-0-|
    ----------------------------------|----------------------------------|
    
    ----------------------------------|----------------------------------|
    ----------------------------------|----------------------------------|
    --1-1-1-1-1-1-1-1-1-1-1-1-1-1-1-1-|----------------------------------|
    ----------------------------------|--0-0-0-0-0-0-0-0-0-0-0-0-0-0-0-0-|
    
    ----------------------------------|----------------------------------|
    ----------------------------------|----------------------------------|
    --1-1-1-1-1-1-1-1-1-1-1-1-1-1-1-1-|----------------------------------|
    ----------------------------------|--0-0-0-0-0-0-0-0-0-0-0-0-0-0-0-0-|
    
    ----------------------------------|----------------------------------|
    ----------------------------------|----------------------------------|
    --1-1-1-1-1-1-1-1-1-1-1-1-1-1-1-1-|----------------------------------|
    ----------------------------------|--3-3-3-3-3-3-3-3-3-3-3-3-3-3-3-3-|
    
    ----------------------------------|----------------------------------|
    ----------------------------------|----------------------------------|
    ----------------------------------|----------------------------------|
    --4-4-4-4-4-4-4-4-4-4-4-4-4-4-4-4-|--5-5-5-5-5-5-5-5-5-5-5-5-5-5-5-5-|
    
    
    
    
    ----------------------------------|----------------------------------|
    ----------------------------------|-------------------------------x2
    --1-1-1-1-1-1-1-1-1-1-1-1-1-1-1-1-|----------------------------------|
    ----------------------------------|--3-3-3-3-3-3-3-3-3-3-3-3-3-3-3-3-|
    
    ----------------------------------|----------------------------------|
    ----------------------------------|----------------------------------|
    --0-0-0-0-0-0-0-0-0-0-0-0-0-0-0-0-|--0-0-0-0-0-0-0-0-0-0-0-0-0-0-0-0-|
    ----------------------------------|----------------------------------|
    
    ------------------------|------------------------|
    ------------------------|------------------------|
    --0---7---4---1------1--|--0---7---4---1------1--|
    ------------------5-----|------------------5-----|
    
    ----------------------------------|----------------------------------|
    --0-0-0-0-0-0-0-0-0-0-0-0-0-0-0-0-|--0-0-0-0-0-0-0-0-0-0-0-0-0-0-0-0-|
    ----------------------------------|--------------------------------x6
    ----------------------------------|----------------------------------|
    
    ----------------------------------|----------------------------------|
    ----------------------------------|--------------------------------x2
    --1-1-1-1-1-1-1-1-1-1-1-1-1-1-1-1-|----------------------------------|
    ----------------------------------|--0-0-0-0-0-0-0-0-0-0-0-0-0-0-0-0
    
    ----------------------------------|----------------------------------|
    ----------------------------------|----------------------------------|
    --1-1-1-1-1-1-1-1-1-1-1-1-1-1-1-1-|----------------------------------|
    ----------------------------------|--3-3-3-3-3-3-3-3-3-3-3-3-3-3-3-3-|
    
    ----------------------------------|----------------------------------|
    ----------------------------------|----------------------------------|
    ----------------------------------|----------------------------------|
    --4-4-4-4-4-4-4-4-4-4-4-4-4-4-4-4-|--5-5-5-5-5-5-5-5-5-5-5-5-5-5-5-5-|
    
    ----------------------------------|----------------------------------|
    ----------------------------------|--------------------------------x2
    --1-1-1-1-1-1-1-1-1-1-1-1-1-1-1-1-|----------------------------------|
    ----------------------------------|--3-3-3-3-3-3-3-3-3-3-3-3-3-3-3-3-|
    
    ----------------------------------|----------------------------------|
    ----------------------------------|----------------------------------|
    --0-0-0-0-0-0-0-0-0-0-0-0-0-0-0-0-|--0-0-0-0-0-0-0-0-0-0-0-0-0-0-0-0-|
    ----------------------------------|----------------------------------|
    
    ------------------------|------------------------|-------------------||
    ------------------------|------------------------|-------------------||
    --0---7---4---1------1--|--0---7---4---1------1--|-------------------||
    ------------------5-----|------------------5-----|--0----------------||…
  • Intro:Am Dm Am Dm Am F E7
    
    Am      Dm              Am
    She had something to confess to
    Dm                     Am
    But you don?t have the time so
    F            E7
    Look the other way
    Am       Dm             Am
    You will wait until…
  • Gtr I
    |-7-------7-------|-7-------7-------|-7-------7-------|-7-------7-------|
    |---8---8---8---8-|---7---7---7---7-|---8---8---8---8-|---7---7---7---7-|
    |-----9-------9---|-----8-------8---|-----9-------9---|-----8-------8---|
    |-----------------|-----------------|-----------------|-----------------|
    |-----------------|-----------------|-----------------|-----------------|
    |-----------------|-----------------|-----------------|-----------------|
    
    
    Em…
  • Intro
    E|---7-----7---------7-----7----------8-----8---------7-----7--------|
    B|-----8-----8---8-----5-----5---5------8-----8---8-----5-----5---5--|
    G|-------9-----9---------5-----5----------9-----9---------5-----5----|
    D|-9---------------7---------------10---------------7----------------|
    A|-------------------------------------------------------------------|
    E|-------------------------------------------------------------------|…
  • Вступление Intro:(reverb)
    E|-0--0--2--2--0--0--2---2--0-|
    B|-0--1--2--4--0--1--2---2--1-|
    G|-0--0--3--2--0--0--3---3--0-|
    D|-2--2--4--4--2--2--2---3--2-|
    A|-2--3--4--2--2--3--4---4--3-|
    E|-0--3--2--x--0--3--2---2--3-|
    
    
    Куплет…
  • Intro:
    e|--------0------|---------------|--------0----|---------------|
    B|--------0------|--------2-1-0--|----0---0----|--------2-1-0--|
    G|--------1-----1|------1-------2|0h1-----1----|------1-------2|
    D|----2-------2--|----2----------|------2------|----2----------|
    A|---------------|0h2------------|-------------|0h2------------|
    E|0--------------|---------------|0------------|---------------|
    
    e|--------------|2-------------|---------------|2--------------|
    B|--------0-----|----0---------|--------0------|----0----------|
    G|------------2-|--------2-----|------------2--|--------2------|
    D|----1---------|------------1-|----1----------|------------1--|
    A|2-------------|--------------|2--------------|---------------|
    E|--------------|--------------|---------------|---------------|
    
    Verse:
    
    used…
  • Intro Part 1
    ~~~~~~~~~~~~
    Guitar - no bass or drums - (rough guide to rythem - check CD)
    
    Part of the intro is played with harmonics - the first one is found
    in-between the 2nd and 3rd frets (2.5*) and the second one is…
  • Intro
    e|----------------------------------------
    B|----------3-----------------------------
    G|----------------------------------------
    D|-3-4-3-4-----4-3-4----------------------
    A|----------------------------------------
    D|----------------------------------------…
  • Dm    Aaug
    Shame on you
    
        F            Fdim
    For thinking you're an exception
    
    Edim     D
    We're all to blame
    
    Dm                    D
    Crashing down to Earth
    
    Dm      Gm                 G
    Wasting and burning out, you're…
  • Gtr. 1(W/dist, pick efx. and Fdbck.)
    e|-X-X-X-X-X-X-X-X-X-X-X-X-X-X-X-X-X-X-X-X-X-X-X-X-X-X-X-X-X-X-----||
    B|-X-X-X-X-X-X-X-X-X-X-X-X-X-X-X-X-X-X-X-X-X-X-X-X-X-X-X-X-X-X-----||
    G|-X-X-X-X-X-X-X-X-X-X-X-X-X-X-X-X-X-X-X-X-X-X-X-X-X-X-X-X-X-X-----||
    D|-----------------------------------------------------------------||
    A|-----------------------------------------------------------------||
    E|-------------------------------------------------------------12⁄-||
    
    e|-12121212-||…
  • Riff A
       F#                                G                                 D
    E|-------------------------------------------------------------------------|
    B|-----------------------7h8p7---------------------------7-7h8p7---7---7---|
    G|-----6-----6-7---6-7-9-------9-7-6---6-7---6-7-9-6-7-9---------9---9---7-|
    D|-8-9---8-9-----9-------------------9-----9-------------------------------|
    A|-------------------------------------------------------------------------|
    E|-------------------------------------------------------------------------|
    
    E|------------------------------|
    B|---------7-9-10-9-7-6-7-------|
    G|-------7----------------7---7-|…
  • Em
    This means nothing to me
                   Am
    ?Cause you are nothing to me
                 B7           Am
    And it means nothing to me
                      Em
    That you blew this away
    
    ?Cause you could have been number one
    If you…
  • E|-------------------------------------------------------------|
    B|-0-8-8-8-8-8-----8-8-8-8-8-----8-8-8-8-8-----8-8-8-8-8-------|
    G|-0-0-0-0-0-0-----0-0-0-0-0-----0-0-0-0-0-----0-0-0-0-0-------|
    D|-0----------5-5-5---------5-5-5---------5-5-5----------5-5-5-|
    A|-0----------5-5-5---------5-5-5---------5-5-5----------5-5-5-|
    E|-0----------3-3-3---------3-3-3---------3-3-3----------3-3-3-|
    
    E|-------------------------------------------------------------|
    B|-12----------------------------------------------------------|
    G|--0----------------------------------------------------------|
    D|--0----------------------------------------------------------|
    A|--x--x-x-x--x--x-x-x--x--x-x-x--x--x-x-x--x--x-x-x--x--x-x-x-|
    E|-10-10-x-x-10-10-x-x-10-10-x-x-10-10-x-x-10-10-x-x-10-10-x-x-|
    
    E|-----------------|
    B|-----------------|
    G|-----------------|
    D|-----------------|
    A|--x--x-x-x--x--x-|
    E|-10-10-x-x-10-10-|
    
    E|-------------------------------------------------------------|
    B|-12----------------------------------------------------------|
    G|--0----------------------------------------------------------|
    D|--0----------------------------------------------------------|
    A|--x--x-x-x--x--x-x-x--x--x-x-x--x--x-x-x--x--x-x-x--x--x-x-x-|
    E|-10-10-x-x-10-10-x-x-10-10-x-x-10-10-x-x-10-10-x-x-10-10-x-x-|
    
    E|-----------------|
    B|-----------------|
    G|-----------------|
    D|-----------------|
    A|--x--x-x-x--x--x-|
    E|-10-10-x-x-10-10-|
    
    E|---------------------------|
    B|-12------------------------|
    G|--0------------------------|
    D|--0------------------------|
    A|--x--x-x-x--x--x-x-x--x--x-|
    E|-10-10-x-x-10-10-x-x-10-10-|
    
    It's…
  • INTRO
    Gtr.1(elec.) Dm
    E||---------------------||-----------------------|---------------------|
    B||---------------------||-----------------------|---------------------|
    G||---------------------||-----------------------|---------------------|
    D||---------------------||-----------------------|----------/7---5---3-|
    A||----------------5-7--||--8------7--5----------|--------4------------|
    E||---------------------||-----------------------|---------------------|
    
    E|---------------------------|--------------------------|-----------------|
    B|---------------------------|--------------------------|-----------------|
    G|---------------------------|--------------------------|-------------6br-|
    D|--2h3p2-------2------------|---------------7---5---7--|--7br--7--5------|
    A|-----------4-----4--1h4p1p0h1p0-----------------------|-----------------|
    E|---------------------------|-----------2/5------------|-----------------|
    
    w/bar
    ~~~~~~~~~~~~~~~~
    E|------------------------|-----|
    B|------------------------|--14-|
    G|---------7h9-10---9---7////12-|
    D|------------------------|-----|
    A|------------------------|-----|
    E|------------------------|-----|
    
    VERSE
    Dsus4…
  • Intro Guitar;
    
    Before this slide your pick up slowly gradually speeding up
    
    e|--------------------------------------|
    B|----b12-10-----b12-10----b12-10---b12-|
    G|-14---------13--------10--------9-----|
    D|-x----------x---------x---------x-----|…
  • Intro:
    
    E-----------------------------------------------------------------------
    B-----1-------0-------1-------0-------1---------------1---1-------------
    G-----2-------1-------0-------1-------2-------1-------2---2-------------
    D---2---2---0---0---2---2---0---0---2---2-----2-----2---2---------------
    A-0-------2-------3-------2-------0---------2---2-0---------------------
    E-----------------------------------------0-----------------------------
    
    Verse…
  • [Intro Riff] x4
    
    Matt makes some noise at the start, but once the solo kicks in,
    along comes the bass.
    
    G|-----------------------|-------------------------|
    D|-----------------------|-------------------------|
    A|-12--------3---5---6---|--7--------------10--11--|
    E|-----------------------|-------------------------|
    
    [Verse…
  • Внимание: Am/G-стандартный аккорд ля минор только с бассом соль
    (3-ий лад 6-ая струна) F-здесь его лучше брать так-басс фа
    (1-ый лад 6-ая струна) и ля (2-ой лад третья струна) Am и E
    играть стандартно.
    
    (Bricusse/Newley)
    
    просто…
  • Tuning D-A-D-G-B-E
    
    Intro
    Dm
    E|-------------10----------|-------------10----------|----|
    B|-------10-------10----10-|-------10-------10----10-|----|
    G|----10----10-------10----|----10----10-------10----|----|
    D|-12----------------------|-12----------------------|…
  • E|---------------------------------|
    B|--3---------------------2------0-|
    G|--2---------------------0------0-|
    D|--0---------------------0------0-|
    A|---------------------------------|
    E|---------------------------------|
    you…
  • Drum Intro:
    
    Verse:
    Am--without 1st on B Am E? Emaj
    -------------------|------------------|
    ---0---0---0---0---|--1---1---0---1---|
    -------------------|------------------|
    -------------------|------------------|
    -----0---0---0---0-|----0---0---0---0-|
    -------------------|------------------|
    
    |------------------|------------------|
    |--0---0---0---0---|--0---0---0---0---|(Guitar/Keyboard)
    |------------------|-(1)-(1)-(1)-(1)--|(Guiatr/Keyboard)…
  • E|------x-x-x-x-----------------x-x---|--x-x-x-x-----------------x-x-|
    B|------x-x-x-x-----------------x-x---|--x-x-x-x-----------------x-x-|
    G|------x-x-x-x---7-------------x-x---|--x-x-x-x--7--------------x-x-|
    D|----6-6-6-6-6---x-------------x-x---|--6-6-6-6--x--------------x-x-|
    A|----x-x-x-x-x---x-------------------|--x-x-x-x--x------------------|
    E|----x-x-x-x-x---x-------------------|--x-x-x-x--x------------------|
    
    E|------x-x-x-x-----------------x-x---|--x-x-x-x-----------------x-x-|
    B|------x-x-x-x-----------------x-x---|--x-x-x-x-----------------x-x-|
    G|------x-x-x-x---7-------------x-x---|--x-x-x-x--7--------------x-x-|
    D|----6-6-6-6-6---x-------------x-x---|--6-6-6-6--x--------------x-x-|
    A|----x-x-x-x-x---x-------------------|--x-x-x-x--x------------------|
    E|----x-x-x-x-x---x-------------------|--x-x-x-x--x------------------|
    
    Full…
  • Verse Riff
    E|-----------------------------0---------------------------|
    B|-----------------------3-------3-----3-----------------2-|
    G|-6---6---6---6/7/6-------2-------2---2---4/5/4-2---2---2-|
    D|-7-7---7-5---------5-4-----4-------4-3-3---------4---4-2-|
    A|-7-------7-7-------7-----------------------------------0-|
    E|---------------------------------------------------------|
    
    E|-------0-----0---|
    B|-2-----0---0---0-|
    G|---2---1-1-------|
    D|-----2-2---------|
    A|-------2---------|
    E|-------0---------|
    
    E|-----------0-------|
    B|-----3-------3---2-|
    G|-1-----2-------2-2-|
    D|---0-----0-------2-|
    A|-----------------0-|
    E|-------------------|
    
    Chorus…
  • Intro (clean sound)
    
    e----------------|---------------------------------------------|
    B----------------|.-------------------------------------------.|
    G----------------|---------------------------------------------|
    D--4-4-4-4-4-...-|--4-4-4-4-4-4-4-4-4-4-4-4-4-4-4-4-4-4-4-4-4--|
    A----------------|.-5-5-5-5-5-5-5-5-5-5-5-5-5-5-5-5-0-0-0-0-0-.|
    E----------------|------------------7-7-7-7-7-7-7-7-5-5-5-5-5--|
    
    (Flat…
  • intro
    |-----0------0-----0-----0-----0----|
    |-------1------1-----1-----1-----1--|
    |-1s2-----2------2-----2-----2-----2| x2
    |-----------------------------------|
    |-----------------------------------|
    |-----------------------------------|
    
    verse…
  • A            D          A
    I?m sick of feeling my soul
                 D            A
    Some people who?ll never know
               E            F#m         D
    Just how purposely and empty they grow
    A               D          A
    Because…
  • Вступление: H C#m G#m E
    
    
    H
    Far away
    C#m                    G#m
    The ship is taking me far away
     E                 H
    Far away from the memories
    C#m                G#m              E
    Of the people who care if I live…
  • E||--------|--------|--------|--------|--------|--------|
    B||--------|--------|--------|--------|--------|--------|
    G||--------|--------|--------|--------|--------|--------|
    D||--------|--------|--------|--------|--------|--------|
    A||--------|--------|--------|--------|--------|--------|
    E||--------|--------|--------|--------|--------|--------|
    
    
    
    ----------------------------------|
    ----------------------------------|
    ------9-9-----9-9-----9-9-----9-9-|
    --7-7-----7-7-----7-7-----7-7-----|
    ----------------------------------|
    ----------------------------------|
    
    
    
    ------------------------------------------|----------------------------------|
    ------------------------------------------|----------------------------------|
    ------10-10-----10-10-----10-10-----10-10-|------9-9-----9-9-----9-9-----9-9-|
    --7-7-------7-7-------7-7-------7-7-------|--7-7-----7-7-----7-7-----7-7-----|
    ------------------------------------------|----------------------------------|
    ------------------------------------------|----------------------------------|
    
    
    
    ------------------------------------------|----------------------------------|
    ------------------------------------------|----------------------------------|
    ------10-10-----10-10-----10-10-----10-10-|------9-9-----9-9-----9-9-----9-9-|
    --7-7-------7-7-------7-7-------7-7-------|--7-7-----7-7-----7-7-----7-7-----|
    ------------------------------------------|----------------------------------|
    ------------------------------------------|----------------------------------|
    
    
    
    ------------------------------------------|----------------------------------|
    ------------------------------------------|----------------------------------|
    ------10-10-----10-10-----10-10-----10-10-|------9-9-----9-9-----9-9-----9-9-|
    --7-7-------7-7-------7-7-------7-7-------|--7-7-----7-7-----7-7-----7-7-----|
    ------------------------------------------|----------------------------------|
    ------------------------------------------|----------------------------------|
    
    
    
    ------------------------------------------|----------------------------------|
    ------------------------------------------|----------------------------------|
    ------10-10-----10-10-----10-10-----10-10-|------9-9-----9-9-----9-9-----9-9-|
    --7-7-------7-7-------7-7-------7-7-------|--7-7-----7-7-----7-7-----7-7-----|
    ------------------------------------------|----------------------------------|
    ------------------------------------------|----------------------------------|
    
    
    
    ------------------------------------------|----------------------------------|
    ------------------------------------------|----------------------------------|
    ------10-10-----10-10-----10-10-----10-10-|------9-9-----9-9-----9-9-----9-9-|
    --7-7-------7-7-------7-7-------7-7-------|--7-7-----7-7-----7-7-----7-7-----|
    ------------------------------------------|----------------------------------|
    ------------------------------------------|----------------------------------|
    
    
    
    ------------------------------------------|----------------------------------|
    ------------------------------------------|----------------------------------|
    ------10-10-----10-10-----10-10-----10-10-|------9-9-----9-9-----9-9-----9-9-|
    --7-7-------7-7-------7-7-------7-7-------|--7-7-----7-7-----7-7-----7-7-----|
    ------------------------------------------|----------------------------------|
    ------------------------------------------|----------------------------------|
    
    
    
    ------------------------------------------|----------------------------------|
    ------------------------------------------|----------------------------------|
    ------10-10-----10-10-----10-10-----10-10-|------9-9-----9-9-----9-9-----9-9-|
    --7-7-------7-7-------7-7-------7-7-------|--7-7-----7-7-----7-7-----7-7-----|
    ------------------------------------------|----------------------------------|
    ------------------------------------------|----------------------------------|
    
    
    
    ------------------------------------------|----------------------------------|
    ------------------------------------------|----------------------------------|
    ------10-10-----10-10-----10-10-----10-10-|------9-9-----9-9-----9-9-----9-9-|
    --7-7-------7-7-------7-7-------7-7-------|--7-7-----7-7-----7-7-----7-7-----|
    ------------------------------------------|----------------------------------|
    ------------------------------------------|----------------------------------|
    
    
    
    ----------------------------------|----------------------------|
    ----------------------------------|--1--1--1--1-1-1--1--1--1-1-|
    --10--10--10--10--10--10--10--10--|--0--0--0--0-0-0--0--0--0-0-|
    --7---7---7---7---7---7---7---7---|--2--2--2--2-2-2--2--2--2-2-|
    ----------------------------------|--3--3--3--3-3-3--3--3--3-3-|
    ----------------------------------|----------------------------|
    
    
    
    -----------------------------|--3--3--3--3--3--3--3-3-3-3-|
    --1--1--1--1-1-1--1--1-1-1-1-|--3--3--3--3--3--3--3-3-3-3-|
    --0--0--0--0-0-0--0--0-0-0-0-|--0--0--0--0--0--0--0-0-0-0-|
    --2--2--2--2-2-2--2--2-2-2-2-|--0--0--0--0--0--0--0-0-0-0-|
    --3--3--3--3-3-3--3--3-3-3-3-|--2--2--2--2--2--2--2-2-2-2-|
    -----------------------------|--3--3--3--3--3--3--3-3-3-3-|
    
    
    
    --3--3--3-3-3-3-3--3--3-3-3-3-|----------------------------|
    --3--3--3-3-3-3-3--3--3-3-3-3-|----------------------------|
    --0--0--0-0-0-0-0--0--0-0-0-0-|--2--2--2--2--2-2-2-2-2--2--|
    --0--0--0-0-0-0-0--0--0-0-0-0-|--2--2--2--2--2-2-2-2-2--2--|
    --2--2--2-2-2-2-2--2--2-2-2-2-|--2--2--2--2--2-2-2-2-2--2--|
    --3--3--3-3-3-3-3--3--3-3-3-3-|--0--0--0--0--0-0-0-0-0--0--|
    
    
    
    ----------------------------|--------------------------|
    ----------------------------|--1--1--1--1--1--1--1--1--|
    --2--2--2--2-2-2--2--2--2-2-|--2--2--2--2--2--2--2--2--|
    --2--2--2--2-2-2--2--2--2-2-|--3--3--3--3--3--3--3--3--|
    --2--2--2--2-2-2--2--2--2-2-|--3--3--3--3--3--3--3--3--|
    --0--0--0--0-0-0--0--0--0-0-|--1--1--1--1--1--1--1--1--|
    
    
    
    --------------------------|--1--1--1--1-1-1--1--1--1-1-|
    --1--1--1--1--1--1--1--1--|--3--3--3--3-3-3--3--3--3-3-|
    --2--2--2--2--2--2--2--2--|--2--2--2--2-2-2--2--2--2-2-|
    --3--3--3--3--3--3--3--3--|--0--0--0--0-0-0--0--0--0-0-|
    --3--3--3--3--3--3--3--3--|----------------------------|
    --1--1--1--1--1--1--1--1--|----------------------------|
    
    
    
    --1--1--1--1-1-1--1--1-1-1-1-|----------------------------|
    --3--3--3--3-3-3--3--3-3-3-3-|----------------------------|
    --2--2--2--2-2-2--2--2-2-2-2-|--4--4--4--4-4-4--4--4--4-4-|
    --0--0--0--0-0-0--0--0-0-0-0-|--5--5--5--5-5-5--5--5--5-5-|
    -----------------------------|--5--5--5--5-5-5--5--5--5-5-|
    -----------------------------|--3--3--3--3-3-3--3--3--3-3-|
    
    
    
    ----------------------------|-----------------------------|
    ----------------------------|-----------------------------|
    --4--4--4--4-4-4-4-4--4--4--|-----------------------------|
    --5--5--5--5-5-5-5-5--5--5--|--------7----------5---------|
    --5--5--5--5-5-5-5-5--5--5--|-------------5-6-7---7-6-----|
    --3--3--3--3-3-3-3-3--3--3--|--8/-5-------------------8-5-|
    
    
    
    -----------------------------|-----------------------------|
    -----------------------------|-----------------------------|
    -----------------------------|-----------------------------|
    --------7----------5---------|--------7----------5---------|
    -------------5-6-7---7-6-----|-------------5-6-7---7-6-----|
    --8/-5-------------------8-5-|--8--5-------------------8-5-|
    
    
    
    -----------------------------|
    -----------------------------|
    -----------------------------|
    --------7----------5---------|
    -------------5-6-7---7-6-----|
    --8--5-------------------8/5-|
    
    
    --------|--------|--------|--------|--------|--------|
    --------|--------|--------|--------|--------|--------|
    --------|--------|--------|--------|--------|--------|
    --------|--------|--------|--------|--------|--------|
    --------|--------|--------|--------|--------|--------|
    --------|--------|--------|--------|--------|--------|
    
    
    --------|--------|--------|--------|--------|--------|
    --------|--------|--------|--------|--------|--------|
    --------|--------|--------|--------|--------|--------|
    --------|--------|--------|--------|--------|--------|
    --------|--------|--------|--------|--------|--------|
    --------|--------|--------|--------|--------|--------|
    
    
    
    --------|--------|--------|----------------------------------|
    --------|--------|--------|----------------------------------|
    --------|--------|--------|--10--10--10--10--10--10--10--10--|
    --------|--------|--------|--7---7---7---7---7---7---7---7---|
    --------|--------|--------|----------------------------------|
    --------|--------|--------|----------------------------------|
    
    
    
    ----------------------------|-----------------------------|
    --1--1--1--1-1-1--1--1--1-1-|--1--1--1--1-1-1--1--1-1-1-1-|
    --0--0--0--0-0-0--0--0--0-0-|--0--0--0--0-0-0--0--0-0-0-0-|
    --2--2--2--2-2-2--2--2--2-2-|--2--2--2--2-2-2--2--2-2-2-2-|
    --3--3--3--3-3-3--3--3--3-3-|--3--3--3--3-3-3--3--3-3-3-3-|
    ----------------------------|-----------------------------|
    
    
    
    --3--3--3--3--3--3--3-3-3-3-|--3--3--3-3-3-3-3--3--3-3-3-3-|
    --3--3--3--3--3--3--3-3-3-3-|--3--3--3-3-3-3-3--3--3-3-3-3-|
    --0--0--0--0--0--0--0-0-0-0-|--0--0--0-0-0-0-0--0--0-0-0-0-|
    --0--0--0--0--0--0--0-0-0-0-|--0--0--0-0-0-0-0--0--0-0-0-0-|
    --2--2--2--2--2--2--2-2-2-2-|--2--2--2-2-2-2-2--2--2-2-2-2-|
    --3--3--3--3--3--3--3-3-3-3-|--3--3--3-3-3-3-3--3--3-3-3-3-|
    
    
    
    ----------------------------|----------------------------|
    ----------------------------|----------------------------|
    --2--2--2--2--2-2-2-2-2--2--|--2--2--2--2-2-2--2--2--2-2-|
    --2--2--2--2--2-2-2-2-2--2--|--2--2--2--2-2-2--2--2--2-2-|
    --2--2--2--2--2-2-2-2-2--2--|--2--2--2--2-2-2--2--2--2-2-|
    --0--0--0--0--0-0-0-0-0--0--|--0--0--0--0-0-0--0--0--0-0-|
    
    
    
    --------------------------|--------------------------|
    --1--1--1--1--1--1--1--1--|--1--1--1--1--1--1--1--1--|
    --2--2--2--2--2--2--2--2--|--2--2--2--2--2--2--2--2--|
    --3--3--3--3--3--3--3--3--|--3--3--3--3--3--3--3--3--|
    --3--3--3--3--3--3--3--3--|--3--3--3--3--3--3--3--3--|
    --1--1--1--1--1--1--1--1--|--1--1--1--1--1--1--1--1--|
    
    
    
    --1--1--1--1-1-1--1--1--1-1-|--1--1--1--1-1-1--1--1-1-1-1-|
    --3--3--3--3-3-3--3--3--3-3-|--3--3--3--3-3-3--3--3-3-3-3-|
    --2--2--2--2-2-2--2--2--2-2-|--2--2--2--2-2-2--2--2-2-2-2-|
    --0--0--0--0-0-0--0--0--0-0-|--0--0--0--0-0-0--0--0-0-0-0-|
    ----------------------------|-----------------------------|
    ----------------------------|-----------------------------|
    
    
    
    ----------------------------|----------------------------|
    ----------------------------|----------------------------|
    --4--4--4--4-4-4--4--4--4-4-|--4--4--4--4-4-4-4-4--4--4--|
    --5--5--5--5-5-5--5--5--5-5-|--5--5--5--5-5-5-5-5--5--5--|
    --5--5--5--5-5-5--5--5--5-5-|--5--5--5--5-5-5-5-5--5--5--|
    --3--3--3--3-3-3--3--3--3-3-|--3--3--3--3-3-3-3-3--3--3--|
    
    
    
    -----------------------------|-----------------------------|
    -----------------------------|-----------------------------|
    -----------------------------|-----------------------------|
    --------7----------5---------|--------7----------5---------|
    -------------5-6-7---7-6-----|-------------5-6-7---7-6-----|
    --8/-5-------------------8-5-|--8/-5-------------------8-5-|
    
    
    
    -----------------------------|-----------------------------|
    -----------------------------|-----------------------------|
    -----------------------------|-----------------------------|
    --------7----------5---------|--------7----------5---------|
    -------------5-6-7---7-6-----|-------------5-6-7---7-6-----|
    --8--5-------------------8-5-|--8--5-------------------8/5-|
    
    
    
    -------------------------|-------------------------------|
    --5----5----5----5-------|-------------------------------|
    -------------------7-5-7-|-------------------5---5---5---|
    -------------------------|--7------------5-7---7---7---7-|
    -------------------------|-----------5-7-----------------|
    -------------------------|-------5-8---------------------|
    
    
    
    ---------------------------|-------------------------------|
    --5----5----5----5---------|-------------------------------|
    -------------------7-5h7h5-|-------------------5---5---5---|
    ---------------------------|--7------------5/7---7---7---7-|
    ---------------------------|-----------5-7-----------------|
    ---------------------------|-------5-8---------------------|
    
    
    
    --------------------------|-----------------------------------|
    --5---8-5---8-5---8-5---8-|-----------------------------------|
    --------------------------|--7r-7-5---------------------------|
    --------------------------|---------7-5-5h7h5-------------5-7-|
    --------------------------|-------------------7-5-----5-7-----|
    --------------------------|-----------------------8-5---------|
    
    
    
    -------------------------|--------------------------|--12----------10------|
    -------------------------|--------------------------|----------------------|
    --9----10----11----12----|--13----14----15----17r---|----------------------|
    -------------------------|--------------------------|----------------------|
    -------------------------|--------------------------|----------------------|
    -------------------------|--------------------------|----------------------|
    
    
    
    --8----10----7--------|------7----5--------|--8--------10--12------|
    ----------------------|--------------------|-----------------------|
    ----------------------|--------------------|-----------------------|
    ----------------------|--------------------|-----------------------|
    ----------------------|--------------------|-----------------------|
    ----------------------|--------------------|-----------------------|
    
    
    
    --13----12----10--------|--7--------8------8--|--10----12/-----------|
    ------------------------|---------------------|----------------------|
    ------------------------|---------------------|----------------------|
    ------------------------|---------------------|----------------------|
    ------------------------|---------------------|----------------------|
    ------------------------|---------------------|----------------------|
    
    
    
    --10/---------------|------------------|------------------|
    --------------------|------------------|------------------|
    --------------------|------------------|------------------|
    --------------------|------------------|------------------|
    --------------------|------------------|------------------|
    --------------------|------------------|------------------|
    
    
    
    ----------------------------------|------------------------------------------|
    ----------------------------------|------------------------------------------|
    ------9-9-----9-9-----9-9-----9-9-|------10-10-----10-10-----10-10-----10-10-|
    --7-7-----7-7-----7-7-----7-7-----|--7-7-------7-7-------7-7-------7-7-------|
    ----------------------------------|------------------------------------------|
    ----------------------------------|------------------------------------------|
    
    
    
    ----------------------------------|------------------------------------------|
    ----------------------------------|------------------------------------------|
    ------9-9-----9-9-----9-9-----9-9-|------10-10-----10-10-----10-10-----10-10-|
    --7-7-----7-7-----7-7-----7-7-----|--7-7-------7-7-------7-7-------7-7-------|
    ----------------------------------|------------------------------------------|
    ----------------------------------|------------------------------------------|
    
    
    
    ----------------------------------|----------------------------------|
    ----------------------------------|----------------------------------|
    ------9-9-----9-9-----9-9-----9-9-|--10--10--10--10--10--10--10--10--|
    --7-7-----7-7-----7-7-----7-7-----|--7---7---7---7---7---7---7---7---|
    ----------------------------------|----------------------------------|
    ----------------------------------|----------------------------------|
    
    
    
    ----------------------------|-----------------------------|
    --1--1--1--1-1-1--1--1--1-1-|--1--1--1--1-1-1--1--1-1-1-1-|
    --0--0--0--0-0-0--0--0--0-0-|--0--0--0--0-0-0--0--0-0-0-0-|
    --2--2--2--2-2-2--2--2--2-2-|--2--2--2--2-2-2--2--2-2-2-2-|
    --3--3--3--3-3-3--3--3--3-3-|--3--3--3--3-3-3--3--3-3-3-3-|
    ----------------------------|-----------------------------|
    
    
    
    --3--3--3--3--3--3--3-3-3-3-|--3--3--3-3-3-3-3--3--3-3-3-3-|
    --3--3--3--3--3--3--3-3-3-3-|--3--3--3-3-3-3-3--3--3-3-3-3-|
    --0--0--0--0--0--0--0-0-0-0-|--0--0--0-0-0-0-0--0--0-0-0-0-|
    --0--0--0--0--0--0--0-0-0-0-|--0--0--0-0-0-0-0--0--0-0-0-0-|
    --2--2--2--2--2--2--2-2-2-2-|--2--2--2-2-2-2-2--2--2-2-2-2-|
    --3--3--3--3--3--3--3-3-3-3-|--3--3--3-3-3-3-3--3--3-3-3-3-|
    
    
    
    ----------------------------|----------------------------|
    ----------------------------|----------------------------|
    --2--2--2--2--2-2-2-2-2--2--|--2--2--2--2-2-2--2--2--2-2-|
    --2--2--2--2--2-2-2-2-2--2--|--2--2--2--2-2-2--2--2--2-2-|
    --2--2--2--2--2-2-2-2-2--2--|--2--2--2--2-2-2--2--2--2-2-|
    --0--0--0--0--0-0-0-0-0--0--|--0--0--0--0-0-0--0--0--0-0-|
    
    
    
    --------------------------|--------------------------|
    --1--1--1--1--1--1--1--1--|--1--1--1--1--1--1--1--1--|
    --2--2--2--2--2--2--2--2--|--2--2--2--2--2--2--2--2--|
    --3--3--3--3--3--3--3--3--|--3--3--3--3--3--3--3--3--|
    --3--3--3--3--3--3--3--3--|--3--3--3--3--3--3--3--3--|
    --1--1--1--1--1--1--1--1--|--1--1--1--1--1--1--1--1--|
    
    
    
    --1--1--1--1-1-1--1--1--1-1-|--1--1--1--1-1-1--1--1-1-1-1-|
    --3--3--3--3-3-3--3--3--3-3-|--3--3--3--3-3-3--3--3-3-3-3-|
    --2--2--2--2-2-2--2--2--2-2-|--2--2--2--2-2-2--2--2-2-2-2-|
    --0--0--0--0-0-0--0--0--0-0-|--0--0--0--0-0-0--0--0-0-0-0-|
    ----------------------------|-----------------------------|
    ----------------------------|-----------------------------|
    
    
    
    ----------------------------|----------------------------|
    ----------------------------|----------------------------|
    --4--4--4--4-4-4--4--4--4-4-|--4--4--4--4-4-4-4-4--4--4--|
    --5--5--5--5-5-5--5--5--5-5-|--5--5--5--5-5-5-5-5--5--5--|
    --5--5--5--5-5-5--5--5--5-5-|--5--5--5--5-5-5-5-5--5--5--|
    --3--3--3--3-3-3--3--3--3-3-|--3--3--3--3-3-3-3-3--3--3--|
    
    
    
    ----------------------------|-----------------------------|
    --1--1--1--1-1-1--1--1--1-1-|--1--1--1--1-1-1--1--1-1-1-1-|
    --0--0--0--0-0-0--0--0--0-0-|--0--0--0--0-0-0--0--0-0-0-0-|
    --2--2--2--2-2-2--2--2--2-2-|--2--2--2--2-2-2--2--2-2-2-2-|
    --3--3--3--3-3-3--3--3--3-3-|--3--3--3--3-3-3--3--3-3-3-3-|
    ----------------------------|-----------------------------|
    
    
    
    --3--3--3--3--3--3--3-3-3-3-|--3--3--3-3-3-3-3--3--3-3-3-3-|
    --3--3--3--3--3--3--3-3-3-3-|--3--3--3-3-3-3-3--3--3-3-3-3-|
    --0--0--0--0--0--0--0-0-0-0-|--0--0--0-0-0-0-0--0--0-0-0-0-|
    --0--0--0--0--0--0--0-0-0-0-|--0--0--0-0-0-0-0--0--0-0-0-0-|
    --2--2--2--2--2--2--2-2-2-2-|--2--2--2-2-2-2-2--2--2-2-2-2-|
    --3--3--3--3--3--3--3-3-3-3-|--3--3--3-3-3-3-3--3--3-3-3-3-|
    
    
    
    ----------------------------|----------------------------|
    ----------------------------|----------------------------|
    --2--2--2--2--2-2-2-2-2--2--|--2--2--2--2-2-2--2--2--2-2-|
    --2--2--2--2--2-2-2-2-2--2--|--2--2--2--2-2-2--2--2--2-2-|
    --2--2--2--2--2-2-2-2-2--2--|--2--2--2--2-2-2--2--2--2-2-|
    --0--0--0--0--0-0-0-0-0--0--|--0--0--0--0-0-0--0--0--0-0-|
    
    
    
    --------------------------|--------------------------|
    --1--1--1--1--1--1--1--1--|--1--1--1--1--1--1--1--1--|
    --2--2--2--2--2--2--2--2--|--2--2--2--2--2--2--2--2--|
    --3--3--3--3--3--3--3--3--|--3--3--3--3--3--3--3--3--|
    --3--3--3--3--3--3--3--3--|--3--3--3--3--3--3--3--3--|
    --1--1--1--1--1--1--1--1--|--1--1--1--1--1--1--1--1--|
    
    
    
    --1--1--1--1-1-1--1--1--1-1-|--1--1--1--1-1-1--1--1-1-1-1-|
    --3--3--3--3-3-3--3--3--3-3-|--3--3--3--3-3-3--3--3-3-3-3-|
    --2--2--2--2-2-2--2--2--2-2-|--2--2--2--2-2-2--2--2-2-2-2-|
    --0--0--0--0-0-0--0--0--0-0-|--0--0--0--0-0-0--0--0-0-0-0-|
    ----------------------------|-----------------------------|
    ----------------------------|-----------------------------|
    
    
    
    ----------------------------|----------------------------||
    ----------------------------|----------------------------||
    --4--4--4--4-4-4--4--4--4-4-|--4--4--4--4-4-4-4-4--4--4--||
    --5--5--5--5-5-5--5--5--5-5-|--5--5--5--5-5-5-5-5--5--5--||
    --5--5--5--5-5-5--5--5--5-5-|--5--5--5--5-5-5-5-5--5--5--||
    --3--3--3--3-3-3--3--3--3-3-|--3--3--3--3-3-3-3-3--3--3--||…
  • Intro: Em and B7 alternately
    
    Verse 1
    
    B7 Em B7 Em F#
    paradise comes at a price
    Am B7
    that I am not prepared to pay
    Em C G Am G
    what were we built for?
    G#m Am B7
    could someone tell me please
    
    Verse 2:Same chords as 1st verse
    
    the…
  • Intro - Clean with some random effect, mess about with phaser and chorus
    to get somewhere near it
    
    
    
    |--7---7---7---7-|---9---9---9---9|-12-------------|-14-------------|
    |-8---8---8---8--|-10--10--10--10-|-12-------------|-14-------------|
    |9---9---9---9---|11--11--11--11--|-12-------------|-14-------------|
    |----------------|----------------|-14-------------|-16-------------|
    |----------------|----------------|----------------|----------------|
    |----------------|----------------|----------------|----------------|
    
    
    
    |-12-------------|-14-------------|-12-------------|-14-------------|
    |-12-------------|-14-------------|-12-------------|-14-----14------|
    |-12-------------|-14-------------|-12-------------|-14-----14------|
    |-14-------------|-16-------------|-14-------------|-16-------------|
    |----------------|----------------|----------------|----------------|
    |----------------|----------------|----------------|----------------|
    
    
    
    Verse
    
    |-5-----------|-------------|-5------5------|------4----------------|
    |-5-----------|-------------|-6------7------|----6----5h6p5---------|
    |-5-----------|-11---11-----|-7------8------|--7-----------7-5h7p5-4|
    |-7-----------|-9-----7-----|---------------|-----------------------|
    |-------------|-------------|---------------|-----------------------|
    |-------------|-------------|---------------|-----------------------|
    
    
    
    |-5--------------|----------------|-5--------------|-7--------------|
    |-5--------------|----------------|-6-------7------|-9--------------|
    |-5--------------|-11-------------|-7-------8------|-9--------------|
    |-7--------------|-9--------------|---------10-----|-9--------------|
    |----------------|----------------|----------------|----------------|
    |----------------|----------------|----------------|----------------|
    
    
    
    |-0-------0------|-0--------------|-0-------0--0---|--0---0---0-----|
    |-1-------1------|-0--------------|-1-------1---1--|--0---0---0-----|
    |-2-------0------|-1--------------|-2-------0-0--0-|--1---1---1-----|
    |-2-------2------|-2--------------|-2-------2------|----------------|
    |-0-------3------|-2--------------|-0-------3------|2---0-----------|
    |----------------|----------------|----------------|--------4---3---|
    
    
    Chorus
    
    |-12-------------|-14-------------|-12-------------|-14-------------|
    |-12-------------|-14-------------|-12-------------|-14-------------|
    |-12-------------|-14-------------|-12-------------|-14-------------|
    |-14-------------|-16-------------|-14-------------|-16-------------|
    |----------------|----------------|----------------|----------------|
    |----------------|----------------|----------------|----------------|
    
    
    Verse…
  • Intro (Fuzz):
    
    
    F ||-----------------------|----------------------|----------------------|
    C ||-----------------------|----------------------|----------------------|
    G#||-----------------------|----------------------|----------------------|
    D#||-----------------------|----------------------|----------------------|
    A#||-----------------------|----------------------|----------------------|
    D#||--12h0-13h0-12h0-10h12h|--0-0-13h0-12h0-10h12h|--0-0-13h0-12h0-10h12h|
    
    
    
    |---------------------||
    |---------------------||
    |--------------------*||…
  • Em                             Am Am G Em
    Oh baby don't you know I suffer?
    Oh baby can't you hear me moan?
    You caught me under false pretences
    How long before you let me go?…
  • Intro:
    
    E|----------------------|--------------------|-----------------|
    B|------------2---------|------------3-------|---------3-------|
    G|--------2-------2-----|--------0------0----|------2-----2----|
    D|----2---------------2-|----0-------------0-|---0-----------0-|
    A|0---------------------|--------------------|-----------------|
    E|----------------------|3-------------------|2----------------|
    A…
  • iNTRO
    GTR WITH REVERSE DELAY
    E|--------------------2-------------------------2-------------------|
    B|--------------------3-------------------------3-------------------|
    G|--3--3-------RPTX4--3--3------------3---------3--3----------------|
    D|-0--0---0--0--------0-0---0-0-0--0-0---0-0-0--0-0--0-0-0--0-----0-|
    A|-------4--4--------------4-4-4--------4-4-4-------4-4-4-------1---|
    E|--------------------------------3------------------------3--3-----|
    
    E|---------------------0-9H10-----------------------6-6---6--------------------|
    B|----------------------------10H11-------------------5BU-5BU--3H4P3-----4-----|
    G|-------------5H8-7-7--------------11H12--------0-------------------5-3-5BU-3-|
    D|---------5H7----------------------------11H12--------------------------------|
    A|-----3H6---------------------------------------------------------------------|
    E|-2-5-------------------------------------------------------------------------|
    
    E|--------------------------|
    B|--------------------------|
    G|--------------------0-----|
    D|--4P3---------------------|
    A|------5-4-3-1-0-----------|
    E|----------------3S1---0H2-|
    
    VERSE
    E|-----------------------------------------------------------------0-----------|
    B|----------------------X2----2-3---2-3-----------------------------2----------|
    G|--3-3-------3-3----------------3-----3---3--3--------3-3-------3---3---2-----|
    D|---0--0-0-0--0--0-0-0-----3-----0-----0----0--0-0-0-0-0--0-0--2-2---2-0--0-0-|
    A|-----4-4-4-----4-4-4-----0-------------------4-4-4------4-4--0----------4-4--|
    E|-3---------3----------------------------3------------------------------------|
    your…
  • Capo 2nd
    
    
    Intro
    
    F#:------------------x2
    C#:-----3------3---5-x2
    A-:---4--4-4---------x2
    E-:--4-4--4---5-5-4--x2
    B-:-2--------2---2---x2
    F#:------------------x2
    
    F#:------------------x2
    C#:-----3------3---5-x2
    A-:---4--4-4---------x2
    E-:--4-4--4---5-5-4--x2
    B-:------------------x2
    F#:-3--------3---3---x2
    
    F#:---------------x2
    C#:-2-2------3----x2
    A-:--------4------x2
    E-:------3--------x2
    B-:-4-4-4-4-4-----x2
    F#:---------------x2
    
    F#:-------------x2
    C#:-2-2------3--x2
    A-:--------3----x2
    E-:------2------x2
    B-:-------------x2
    F#:-2-2-2-2-2---x2
    
    
    Verse…
  • Intro:
    E|--------------------------------|
    B|--------------------------------|
    G|--------------------------------|
    D|-9-9-9-9-9-9-9-9-9-9-9-9-9-9-9--|
    A|--------------------------------|
    E|--7-7-7-7-7-7-7-7-7-7-7-7-7-7-7-|
    
    verse:
    E|-----------------------------------|
    B|-----------------------------------|
    G|-----------------------------------|
    D|-----------------------------------|
    A|-9-9-9-9-9-9-9-9--2-2-2-2-2-2-2-2--|
    E|-7-7-7-7-7-7-7-7--1-1-1-1-1-1-1-1--|
    
    E|-----------------------------------|
    B|-----------------------------------|
    G|-----------------------------------|
    D|-----------------------------------|
    A|-4-4-4-4-4-4-4-4--6-6-6-6--7-7-7-7-|
    E|-2-2-2-2-2-2-2-2--4-4-4-4--5-5-5-5-|…
  • intro
    -----------------------------------------------------------------------------
    -----------------------------------------------------------------------------
    -----------------------------------------------------------------------------
    --------------2--7--9--7-----------------------------------------------------
    -----3--7--5--------------7--7--------4--4--4-------------------------------
    -----------------------------------------------------------------------------
    
    
    
    -----------------------------------------------------------------------------
    -----------------------------------------------------------------------------
    -----------------------------------------------------------------------------
    --------------7--7--9--7-----------------------------------------------------
    -----1--2--3--------------10--4--4--4--1--5--5-------------------------------
    -----------------------------------------------------------------------------
    Too…
  • B               Bm
    When pure hearts and stumble
       G            Fsus4 F
    In my hands they crumble
        Bm F/C      B               G
    And fragile and stripped to the core
            B        F  B
    I can't hurt you anymore
    
    B…
  • Standard Tuning
    
    
    Intro/Interlude/Chorus:
    
    G|--------------------------------------------------------------|
    D|-------------------------------------------------777777-------|
    A|-121212121212101010101010999999888888777777777777------777777-|
    E|--------------------------------------------------------------|
    
    
    Verse…
  • Instrument: Bass
    
    
    Riff 1
    
    G:-------------------------------------]
    D:-------------------------------------]
    A:--2-22----222----3-33----333---------]
    E:-------------------------------------]
    
    
    Riff 2
    
    G:-------------------------------------------------------------------]
    D:-------------------------------------------------------------------]
    A:-------------------------------------------------------------------]
    E:--22---22---22---22---2---2----33---33---33---33---3---3-----------]
    
    
    Riff…
  • Tuning: Standard e A D G B E
    
    
    Intro (properly meaty & heavy distortion)
    e--------------------|--------------------|--------------------|--------------------|
    A--------------------|--------------------|--------------------|--------------------|
    D--------------------|---6--6-------------|--------------------|--------------------|
    G----4-7-4-----------|---7----------------|--------7h9p7-------|--9-7---------------|
    B---------4-3-2------|--0--4-5-6----------|---7-7h9-----9p7-7h9|-9----9-8-9---------|
    E---2-2--------------|--------------------|--0-0---------------|--------------------|…
  • Cm               Fm  
    Come into my life
                     Eb 
    Regress into a dream
                G7 
    We will hide build a new reality
     
    Draw another picture 
    Of the life you could have had 
    Follow your instincts 
    And choose…
  • VERSE 1:
      Bb     Gm 
    don't kid yourself
        Eb         F   
    and don't fool yourself
    Gm
    this love's too good to last
    Cm
    and i'm too old to dream
    
    
    Bb Gm Eb F
    
    
    VERSE 2:
    (repeat verse 1 chords)
    don't grow up too fast
    and…
  • Dm    F   C     Dm F C  
    Open skies over me,
            B   F   A      Dm    
    I have waited  patiently,
       B    F     A  A 
    I wait for a sign. 
    
    As conspiracies unwind, 
    Will you slam shut, 
    Or free your mind, 
    or stay hypnotised.…
  • Dropped-d tuning
    
    
    Intro
    -|----------------------------------------------------------------------------
    -|----------7-----7--------------------------------------------17b19----------
    -|-7--777---9b11--9b11r9-7----------------------------7--777------------------
    -|-7--777-------------------9-9----9----------9-------7--777------------------
    -|-5--555-----------------------11---11-10-10---10----5--555------------------
    -|-0--000---------------------------------------------0--000------------------…
  • Intro:
    
    ---------------|
    ---------------|
    -6-6-7-7-6-4-6-|
    -5-5-5-5-5-5-5-|
    -7-7-7-7-7-7-7-|
    ---------------|
    
    A
    -----------------------------|--------------------------|------------------------|
    -----------------------------|--------------------------|------------------------|
    -2--7-7-7-5--X-X-6-6-66-6-X-X|-2-7-7-7-5-X-6-6-6-6-6b76-|-2-7-7-7-5-X-X-6-6-66-6-|
    -2-----------X-X----------X-X|-2---------X--------------|-2---------X-X----------|
    -0--5-5-5-3--X-X-4-4-44-4-X-X|-0-5-5-5-3-X-4-4-4-4-4----|-0-5-5-5-3-X-X-4-4-44-4-|
    -----------------------------|--------------------------|------------------------|
    
    --------------------|
    -------------3------|
    -2--7-7-7-5--2------|
    -2-----------0------|
    -0--5-5-5-3---------|
    --------------------|
    
    
    Verse:
    
    ---------0-------|---------0-------|---------0-------|-0--0-----0--|
    -----1-----1---1-|-----1-----1---1-|-----1-----1---1-|-1--0--3--1--|
    ---2---2-----2---|---2---2-----2---|---2---2-----2---|-2--2--0--2--|
    -3---------------|-2---------------|-3---------------|-2--2--0--3--|
    -----------------|-----------------|-----------------|-0--0--2-----|
    -----------------|-----------------|-----------------|-------3-----|
    
    
    Bridge:
    
    ---------------------------------------------------------------------|
    -1-1-X-X-1-1-1-X-X-X-X-X-1-X-1--1-1-1--0-0-0-0-0-0-0-0-0-0-0-0-0-0-0-|
    -2-2-X-X-2-2-2-X-X-X-X-X-2-X-2--2-2-2--2-2-2-2-2-2-2-1-1-1-1-1-1-1-1-|
    -3-3-X-X-3-3-3-X-X-X-X-X-3-X-3--3-3-3--2-2-2-2-2-2-2-2-2-2-2-2-2-2-2-|
    -3-3-X-X-3-3-3-X-X-X-X-X-3-X-3--3-3-3--2-2-2-2-2-2-2-2-2-2-2-2-2-2-2-|
    ---------------------------------------------------------------------|
    
    
    Chorus:
    
    A…
  • Standard Tuning
    
    
    Verse
    
    G|--------------------------------------------------------------------|
    D|--------------------------------------------------------------------|
    A|----9-9-+-9-+-9-+-9-----------------9-9-+-9-+-9-+-9-----------------|
    E|-14----------------9-9-+-9-+-9-+-9-----------------9-9-+-9-+-9-+-9-|
    
    
    Chorus
    
    G|--------------------------------------------------------------------|
    D|--------------------------------------------------------------------|
    A|----9-(x32)-------------------------11-(x16)--------12-(x16)--------|
    E|-14----------------------------------------------------------------|
    
    G|-----------------------------------------------------------------|
    D|-----------------------------------------------------------------|
    A|-----------------------------------------------------------------|
    E|-9-(x16)---------5-(x16)---------9-(x32)-------------------------|
    
    
    Other…
  • Standard Tuning
    
    
    Riff 1:
    
    |-----------------------------------------------------------------------------------------|
    |----------------------------------3------------------------------------------------------|
    |------------------------2-----5-5---5-54-43-32-0-0-2-0-------------0-0-2-0------------|
    |------------2-5-2-5-2-5-----------------------------------2-3-2-0-2-----------2-3-2-0-2--|
    |------5-2-5---------------5-5---------------------------------------0--------------------|
    |--0-0------------------------------------------------------------------------------------|…
  • --------------------------------------------------------
    --5--6--8--13--13-----12---12--12-----10------10------10
    --------------------------------------------------------
    --------------------------------------------------------
    --3--5--7/-12----12--------10-----10---8---8---8---8---8
    --------------------------------------------------------
    
    
    --------------------------------------------------------
    --8--6--5---5----------------------------5--------------
    ----------------4-------4-------5------------5---9---7--
    --------------------------------------------------------
    --7--5--3-----------------------------------------------
    ----------------3-------4---4---5-----5----------8---7--
    
    
    --------1-----------------------
    ------------1---1--------3/5----
    --2---------2---1-------------0-
    --3-----------------------------
    ------------------------------3-
    --------1-----------1---1-------
    
    
    ---------------------------------------------------------
    --5-----------5---6---8---13---13------12---12--------10-
    ---------------------------------------------------------
    ---------------------------------------------------------
    ------3---3---3---5---7---12------12---10--------10---8--
    ---------------------------------------------------------
    
    
    ---------------------------------------------------------
    --10-----------10---8---6---5-----5----------------------
    --------------------------------------4-----4-------5----
    ---------------------------------------------------------
    -------8---8---8----7---5---3-----3----------------------
    --------------------------------------3-----4---4---5----
    
    
    --------------------------------1------------------------
    ------5-----------------------------1-----------3/-5-----
    ----------9---7---5---2-----------------1---1----------0-
    ---------------------------------------------------------
    ---------------------------------------------------------
    --5-------8---7---5---1-----1---------------1------------
    
    
    ---------------------------------------------------------
    ------5-----------5---6---8/--13---13------12---12-----10
    ---------------------------------------------------------
    ---------------------------------------------------------
    --3-------3---3---3---5---7/--12------12---10------10--8-
    ---------------------------------------------------------
    
    
    ---------------------------------------------------------
    --10---10---10---10---8---6---5----5---------------------
    ---------------------------------------4----4-------5----
    ---------------------------------------------------------
    -------8----8----8----7---5---3----3---------------------
    ---------------------------------------3----4---4---5----
    
    
    ----------------------------------------1----------------
    -----------5-------9-----7---5---2---------1-----3/--5---
    ----------------------------------------------1----------
    ---------------------------------------------------------
    -------------------------------------------------------3-
    --5---5--------5/--8-----7---5---1---1--1--1--1--1-------
    
    
    ---------------------------------------------------------
    ------5----------5/--6/--8---13---13--------12---12---10-
    --0----------0-------------------------------------------
    ---------------------------------------------------------
    ---------3-------3---5/--7---12---12---12---10---10---8--
    ---------------------------------------------------------
    
    
    ---------------------------------------------------------
    --10---10---10---10---10---8---6---5---5-----------------
    -------------------------------------------4----4---5----
    ---------------------------------------------------------
    --8----8----8----8----8----7---5---3---3-----------------
    -------------------------------------------3----4---5----
    
    
    -------------------------------1-------------------------
    --5--5-----------------------------1---------------------
    -----5------9---7---5---2--------------1---1---3/--5-----
    ---------------------------------------------------------
    ---------------------------------------------------------
    --------5/--8---7---5------1---------------1---1-------8-
    
    
    
    ----------------------------------1----------------------
    -----5--------------------------------1-----------3/5----
    ---------0-------9---7---5---2------------1---1----------
    ---------------------------------------------------------
    --3----------3------------------------------------------2
    -----------------8---7---5---1----------------1---------0
    
    
    --0----------------------------------------0-------------
    --0----------------------------------------0-------------
    --1----------------------------------------0-------------
    --2----------------------------------------0-------------
    --2------------------------------------------------------
    --0------------------------------------------------------
    
    
    -----------------------------------------------
    -----------------------------------------------
    -----------------------5-----5-----5-----5-----
    ----5---5--2--0-----------7-----6-----6--------
    --3---3----------3--8-----8-----8-----8-----2--
    --------------------------------------------0—
    
    
    -----------------------------
    -----------------------------
    -----------------------------
    --2---2---2---2---2---2---2--
    --0---0---0---0---0---0---0--
    
    
    --7--7--7--7--7--7--7----7--7--7--7--7--7--7--
    --6--6--6--6--6--6--6----6--6--6--6--6--6--6--
    --7--7--7--7--7--7--7----7--7--7--7--7--7--7--
    --7--7--7--7--7--7--7----7--7--7--7--7--7--7--
    --0--0--0--0--0--0--0----0--0--0--0--0--0--0--
    ----------------------------------------------
    
    --7--7--7--5--5--5--5----7--7--7--7--7--7--7--
    --5--5--5--5--5--5--5----5--5--5--5--5--5--5--
    --6--6--6--6--6--6--6----6--6--6--6--6--6--6--
    --7--7--7--7--7--7--7----7--7--7--7--7--7--7--
    --0--0--0--0--0--0--0----0--0--0--0--0--0--0--
    ----------------------------------------------
    
    
    --7--7--7--7--7--7--7----7--7--7--7--7--7--7--
    --6--6--6--6--6--6--6----6--6--6--6--6--6--6--
    --7--7--7--7--7--7--7----7--7--7--7--7--7--7--
    --7--7--7--7--7--7--7----7--7--7--7--7--7--7--
    --0--0--0--0--0--0--0----0--0--0--0--0--0--0--
    ----------------------------------------------
    
    --7--7--7--7--7--7--7----7--7--7--7--7--7--7--
    --6--6--6--6--6--6--6----6--6--6--6--6--6--6--
    --7--7--7--7--7--7--7----7--7--7--7--7--7--7--
    --7--7--7--7--7--7--7----7--7--7--7--7--7--7--
    --0--0--0--0--0--0--0----0--0--0--0--0--0--0--
    ----------------------------------------------
    
    
    --7--7--7--7--7--7--7----7--7--7--7--7--7--7--
    --5--5--5--5--5--5--5----5--5--5--5--5--5--5--
    --6--6--6--6--6--6--6----6--6--6--6--6--6--6--
    --7--7--7--7--7--7--7----7--7--7--7--7--7--7--
    --0--0--0--0--0--0--0----0--0--0--0--0--0--0--
    ----------------------------------------------
    
    
    --5--5--5--5--5--5--5----7--7--7--7--7--7--7--
    --5--5--5--5--5--5--5----5--5--5--5--5--5--5--
    --6--6--6--6--6--6--6----6--6--6--6--6--6--6--
    --7--7--7--7--7--7--7----7--7--7--7--7--7--7--
    --0--0--0--0--0--0--0----0--0--0--0--0--0--0--
    ----------------------------------------------
    
    
    --7--7--7--7--7--7--7----7--7--7--7--7--7--7--
    --6--6--6--6--6--6--6----6--6--6--6--6--6--6--
    --7--7--7--7--7--7--7----7--7--7--7--7--7--7--
    --7--7--7--7--7--7--7----7--7--7--7--7--7--7--
    --0--0--0--0--0--0--0----0--0--0--0--0--0-----
    ----------------------------------------------
    
    
    --7--7--7--7--7--7--7----7--7--7--7--7--7--7--
    --6--6--6--6--6--6--6----6--6--6--6--6--6--6--
    --7--7--7--7--7--7--7----7--7--7--7--7--7--7--
    --7--7--7--7--7--7--7----7--7--7--7--7--7--7--
    --0--0--0--0--0--0--0----0--0--0--0--0--0--0--
    ----------------------------------------------
    
    
    --7--7--7--7--7--7--7----7--7--7--7--7--7--7--
    --5--5--5--5--5--5--5----5--5--5--5--5--5--5--
    --6--6--6--6--6--6--6----6--6--6--6--6--6--6--
    --7--7--7--7--7--7--7----7--7--7--7--7--7--7--
    --0--0--0--0--0--0--0----0--0--0--0--0--0--0--
    ----------------------------------------------
    
    
    --7--7--7--7--7--7--7----7--7--7--7--7--7--7--
    --5--5--5--5--5--5--5----5--5--5--5--5--5--5--
    --6--6--6--6--6--6--6----6--6--6--6--6--6--6--
    --7--7--7--7--7--7--7----7--7--7--7--7--7--7--
    --0--0--0--0--0--0--0----0--0--0--0--0--0--0--
    ----------------------------------------------
    
    
    --7--7--7--7--7--7--7----7--7--7--7--7--7--7--
    --6--6--6--6--6--6--6----6--6--6--6--6--6--6--
    --7--7--7--7--7--7--7----7--7--7--7--7--7--7--
    --7--7--7--7--7--7--7----7--7--7--7--7--7--7--
    --0--0--0--0--0--0--0----0--0--0--0--0--0--0--
    ----------------------------------------------
    
    
    
    --8--8--8--8--8--8--8----8--8--8--8--8--8--8--
    --6--6--6--6--6--6--6----6--6--6--6--6--6--6--
    --7--7--7--7--7--7--7----7--7--7--7--7--7--7--
    --7--7--7--7--7--7--7----7--7--7--7--7--7--7--
    --0--0--0--0--0--0--0----0--0--0--0--0--0--0--
    ----------------------------------------------
    
    
    --9--9--9--9--9--9--9----9--9--9--9--9--9--9--
    --10-10-10-10-10-10-10---10-10-10-10-10-10-10-
    --9--9--9--9--9--9--9----9--9--9--9--9--9--9--
    --11-11-11-11-11-11-11---11-11-11-11-11-11-11-
    --0--0--0--0--0--0--0----0--0--0--0--0--0--0--
    ----------------------------------------------
    
    
    --9--9--9--9--9--9--9----9--9--9--9--9--9--9--
    --10-10-10-10-10-10-10---10-10-10-10-10-10-10-
    --9--9--9--9--9--9--9----9--9--9--9--9--9--9--
    --11-11-11-11-11-11-11---11-11-11-11-11-11-11-
    --0--0--0--0--0--0--0----0--0--0--0--0--0--0--
    ----------------------------------------------
    
    
    --8--8--8--8--8--8--8----8--8--8--8--8--8--8--
    --10-10-10-10-10-10-10---10-10-10-10-10-10-10-
    --9--9--9--9--9--9--9----9--9--9--9--9--9--9--
    --10-10-10-10-10-10-10---10-10-10-10-10-10-10-
    --0--0--0--0--0--0--0----0--0--0--0--0--0--0--
    ----------------------------------------------
    
    
    --8--8--8--8--8--8--8----8--8--8--8--8--8--8--
    --10-10-10-10-10-10-10---10-10-10-10-10-10-10-
    --9--9--9--9--9--9--9----9--9--9--9--9--9--9--
    --10-10-10-10-10-10-10---10-10-10-10-10-10-10-
    --0--0--0--0--0--0--0----0--0--0--0--0--0--0--
    ----------------------------------------------
    
    
    --8--8--8--8--8--8--8----8--8--8--8--8--8--8--
    --10-10-10-10-10-10-10---10-10-10-10-10-10-10-
    --10-10-10-10-10-10-10---10-10-10-10-10-10-10-
    --10-10-10-10-10-10-10---10-10-10-10-10-10-10-
    --0--0--0--0--0--0--0----0--0--0--0--0--0--0--
    ----------------------------------------------
    
    
    --8--8--8--8--8--8--8----8--8--8--8--8--8--8--
    --10-10-10-10-10-10-10---10-10-10-10-10-10-10-
    --10-10-10-10-10-10-10---10-10-10-10-10-10-10-
    --10-10-10-10-10-10-10---10-10-10-10-10-10-10-
    --0--0--0--0--0--0--0----0--0--0--0--0--0--0--
    ----------------------------------------------
    
    
    --10-10-10-10-10-10-10---10-10-10-10-10-10-10-
    --12-12-12-12-12-12-12---12-12-12-12-12-12-12-
    --10-10-10-10-10-10-10---10-10-10-10-10-10-10-
    --12-12-12-12-12-12-12---12-12-12-12-12-12-12-
    --10-10-10-10-10-10-10---10-10-10-10-10-10-10-
    ----------------------------------------------
    
    
    --10-10-10-10-10-10-10---10-10-10-10-10-10-10-
    --12-12-12-12-12-12-12---12-12-12-12-12-12-12-
    --10-10-10-10-10-10-10---10-10-10-10-10-10-10-
    --12-12-12-12-12-12-12---12-12-12-12-12-12-12-
    --10-10-10-10-10-10-10---10-10-10-10-10-10-10-
    ----------------------------------------------
    
    
    --8--8--8--8--8--8--8----8--8--8--8--8--8--8--
    --8--8--8--8--8--8--8----8--8--8--8--8--8--8--
    --9--9--9--9--9--9--9----9--9--9--9--9--9--9--
    --10-10-10-10-10-10-10---10-10-10-10-10-10-10-
    --10-10-10-10-10-10-10---10-10-10-10-10-10-10-
    --8--8--8--8--8--8--8----8--8--8--8--8--8--8--
    
    
    --8--8----------------------------------------
    --8--8----------------------------------------
    --9--9----------------------------------------
    --10-10---------------------2---3---5---10----
    --10-10---------------------3---5---7---12----
    --8--8----------------------------------------
    
    
    ----------------------------------------------------
    ----------------------------------------------------
    ----------------------------------------------------
    --10--10--10--9---9---9---9---7---7---7---7---7---7-
    --12--12--12--10--10--10--10--8---8---8---8---8---8-
    ----------------------------------------------------
    
    
    ---------------------------------------------------------
    ---------------------------------------------------------
    ---------------------------------------------------------
    --5---3---2---2---2---2------2-----2------2---2---2-0----
    --7---5---3---3---3---3--2------2-----3-----3---3-----3-8
    -------------------------3------4-----5------------------
    
    
    ---------------------------------------------------
    ---------------------------------------------------
    --5------5-----5----5------------------------------
    -----7------6----6-----5-----5-----5--2--3--5--10--
    -----8------8----8--------3-----3-----3--5--7--12--
    ---------------------------------------------------
    
    
    --8--8--8--8--8--8--8----8--8--8--8--8--8--8--
    --8--8--8--8--8--8--8----8--8--8--8--8--8--8--
    --9--9--9--9--9--9--9----9--9--9--9--9--9--9--
    --10-10-10-10-10-10-10---10-10-10-10-10-10-10-
    ----------------------------------------------
    ----------------------------------------------
    
    
    --8--8--8--8--8--8--8----8--8--8--8--8--8--8--
    --8--8--8--8--8--8--8----8--8--8--8--8--8--8--
    --9--9--9--9--9--9--9----9--9--9--9--9--9--9--
    --10-10-10-10-10-10-10---10-10-10-10-10-10-10-
    ----------------------------------------------
    ----------------------------------------------
    
    
    --8-----------------------------------------
    --8-----------------------5----6----8---10--
    --9-----------------------------------------
    --10----------------------------------------
    --------------------------3----5----7---12--
    --------------------------------------------
    
    
    ---------------------------------------------
    --10--12---12--10-------10-----10--8---6---5-
    ---------------------------------------------
    ---------------------------------------------
    --12--10---10---8-----8----8---8---7---5---3-
    ---------------------------------------------
    
    
    --------------------------------------------
    --5-----------------------------------------
    ------4---4---5-------5------9---7---5---2--
    --------------------------------------------
    --3-----------------------------------------
    ------3---4---5---5------5---8---7---5---1--
    
    
    ------------------------------------------------------
    --------------3/-5------------------------------------
    --2---1---1------------0---9-----------9---7---5---2--
    ------------------------------------------------------
    --------------------3---------------------------------
    --1---1---1---1----------------8---8---8---7---5---1—
    
    
    ------------------------
    ---------------------1--
    --2---1----1---------0--
    ---------------------2--
    ---------------------3--
    --1---1----1---------3--…
  • Em
    e|---------------------------------------------+----*12~+--------------0-|
    b|-----------------------------------------------+--*12~+--------------0-|
    g|-------------------------------------------+------*12~+--202~-3/21--2-|
    d|-------------------*16---14p13h15p12~----+--------*12~+--------------3-|
    a|-72r-2-3-5-3-2-4-1--------------------+----------*12~+--------------3-|
    E|-------------------------------------+------------*12~+--------------0-|…
  • E------------------|
    B------------------|
    G--4--------4^/2---|
    D------------------|
    A------------------|
    E------------------|
    
    Use a whammy bar on the G string(2)
    
    
    Verse
    
    E-------------------|R
    B-------------------|E
    G-----2-------2-----|A
    D-------------------|P
    A---3-------4-------|E
    E-1-------2---------|T
    
    
    Chorus
    E----------------------------------------|R
    B----------------------------------------|E
    G---4-----4-----4------4-----4-----4-----|A
    D-----2-----2------------0-----0---------|P
    A-0-----0-----0--------------------------|E
    E--------------------3-----3-----3-------|T
    
    
    DON'T…
  • A      E          A
    Good times for a change
    E                C#
    See, the luck Ive had
               D
    Can make a good man
          E
    Turn bad
        
    
       D              E
    So please please please
            A              D 
    Let me,…
  • Standard Tuning
    
    
    Intro:
    
    |---------------------------------------------------|
    |---------------------------------------------------|
    |---------------------------------------------------|
    |-0-0-0-0-0-0-0-0-0-0-0-0-0-0-0-0-0-0-0-0-0-[etc]---|
    |-------------------------------------------------0-|
    |---------------------------------------------------|
    
    |---------------------------------------------------------------------|
    |--3-3-3-3-3-3-3-3-5-5-5-5-5-5-5-5-6-6-6-6-6-6-6-6-6-6-6-6-6-6-6-6-6--|
    |--2-2-2-2-2-2-2-2-3-3-3-3-3-3-3-3-3-3-3-3-3-3-3-3-3-3-3-3-3-3-3-3-3--|
    |--0-0-0-0-0-0-0-0-0-0-0-0-0-0-0-0-0-0-0-0-0-0-0-0-0-0-0-0-0-0-0-0-0--|
    |---------------------------------------------------------------------|
    |---------------------------------------------------------------------|
    
    
    Verse:
    
    |-------------------------------------------------------------|
    |-------------------------------------------------------------|
    |-------------------------------------------------------------|
    |-------------------------------------------------------------|
    |------3-4-5-------------3-4-5-----------3-4-5----------3-4-5-|
    |-4-0---------0-3-4-5-0--------0-3-4-5-0------0-3-4-5-0-------|
    
    |------------------------------------------------------|
    |------------------------------------------------------|
    |------------------------------------------------------|
    |------------------------------------------------------|
    |-------------1-2-3------------1-2-3-------------1-2-3-|
    |-0-3-4-5-0--------0-3-4-5-0--------0-3-4-5-0----------|
    
    |--------------------------------------------------|
    |--------------------------------------------------|
    |------------10------------10------10--10--10--10--|
    |--------------------------------------------------|
    |----------8-------------8-------8----8---8---8----|
    |-0-3-5-0-------0-3-5-0----------------------------|…
  • e|------0-1-3-1-0-------------------------------0---0-1-3-1-0----------------
    B|----------------3-1-0-------------------------3-------------3-1-0----------
    G|----------------------2-0---------------------1-------------------2-0------
    D|--------------------------3-2-0---------------2-----------------------3-2--
    A|--------------------------------3-2-0---------2----------------------------
    E|-[12]---------------------------------3-1-0---0----------------------------…
  • INTRO
    ------------------------------------------------
    -13----------13----------13----------13---------
    ----16----16----16----16----16----16----16----16...
    -------14----------14----------14----------14---
    ------------------------------------------------
    ------------------------------------------------
    
    ---------------------------------------------------------------
    -15----------15----------15----------15----------13----------13...
    ----16----16----16----16----16----16----16----16----16----16---
    -------15----------15----------15----------15----------14------
    ---------------------------------------------------------------
    ---------------------------------------------------------------
    
    
    Riff…
  • BASS INTRO/VERSE
    G|-------12--------------------------------------------------|
    D|-------------10----9h10----------12------------11----------|
    A|-10-10----10----10-----------------------------------------|
    E|--------------------------10-10-----10---9-9-------9-------|
    
    G|-----------------------------------------------------------|DO…
  • Drop D Tuning
    
    
    Intro/Verse 1:
    
    |---9--9--------------|
    |---10-10-------------|
    |---10-10-------------|
    |---9--9--X-X-X-X-X-X-|
    |---9--9--X-X-X-X-X-X-|
    |---9--9--X-X-X-X-X-X-|
    
    
    Verse 2:
    
    |---9--9-------------------|
    |--10-10-------------------|
    |--10-10-------------------|
    |---9--9-p0/5/6-6-6-7-7p0--|
    |---9--9-p0/5/6-6-6-7-7p0--|
    |---9--9-p0/5/6-6-6-7-7p0--|
    
    
    Verse…
  • Standard Tuning
    
    
    Intro/Verse:
    
    |-----------10--------------|
    |--10-12-13----13-12-10-----|
    |-----------------------12--|
    |---------------------------|
    |---------------------------|
    |---------------------------|
    
    
    Then Change…
  • Intro: Em D Am Am
           Em D Am Am
    
    Verse 1:
    Em              Bsus4  B
    I have lived in darkness
        C                      F#7
    For all my life, I've been pursued
    Am                           Em
    You'd be afraid if…
  • Intro: Em B | Em B
    
    Verse 1:
    Em                                          B
       I'm trapped and my back's up against the wall
                              Em
    I see no solution or exit out…
Наверх