Аккорды Muse - Hyper Music

Добавлено: @romashka
Дата добавления: 19 Марта 2013г.
Рейтинг:
0.0
Просмотров: 356
Транспонировать - +
E|------------------|
B|----6----6--------|
G|----5----5--5-4-3-|
D|----4----4--------|
A|-5--5--5-5--------|
E|-0-----0----------|

E|------------------------------------|
B|----6----6------------6----6--------|
G|----5----5------------5----5--------|
D|----4----4------------4----4--------|
A|-5--5--5-5----3-5--5--5--5-5--3-2-1-|
E|-0-----0----5------0-----0----------|

E|-10-10-10-10-10-10-10-10-10-10-10-10-10-10-10-10-|
B|-10-10-10-10-10-10-10-10-10-10-10-10-10-10-10-10-|
G|-10-10-10-10-10-10-10-10-10-10-10-10-10-10-10-10-|
D|-12-12-12-12-12-12-12-12-12-12-12-12-12-12-12-12-|
A|-------------------------------------------------|
E|-------------------------------------------------|

E|-12-12-12-12-12-12-12-12-12-12-12-12-12-12-12-12-|
B|-13-13-13-13-13-13-13-13-13-13-13-13-13-13-13-13-|
G|-14-14-14-14-14-14-14-14-14-14-14-14-14-14-14-14-|
D|-------------------------------------------------|
A|-------------------------------------------------|
E|-------------------------------------------------|

E|-10-10-10-10-10-10-10-10-10-10-10-10-10-10-10-10-|
B|-12-12-12-12-12-12-12-12-12-12-12-12-12-12-12-12-|
G|-12-12-12-12-12-12-12-12-12-12-12-12-12-12-12-12-|
D|-------------------------------------------------|
A|-------------------------------------------------|
E|-------------------------------------------------|

E|-10-10-10-10-10-10-10-10-10-10-10-10-10-10-10-10-|
B|-11-11-11-11-11-11-11-11-11-11-11-11-11-11-11-11-|
G|-12-12-12-12-12-12-12-12-12-12-12-12-12-12-12-12-|
D|-------------------------------------------------|
A|-------------------------------------------------|
E|-------------------------------------------------|
comments powered by Disqus
Наверх