Аккорды Народные песни - God Rest Ye Merry Gentlemen (Английская народная песня)

Добавлено: @vitos
Дата добавления: 29 Июня 2016г.
Рейтинг:
0.0
Просмотров: 526
Транспонировать - +
Intro/Main part:
                               sl.
|--0--------0--------2--------32-3-----0-------0---------------|
|-----0--------0--------0-------0---0-------0------0------------|
|---------------------------------------------------------------|
|--2--------2--------0------------------------------------------|
|-----------------------------32-3-----0-------0---------------|
|---------------------------------------------------------------|
                                sl.

     tricky part
|-----3--5--7-----0------2-----32-3-----0-------2--------------|
|--------------0-----0------0----0---0------0-------3-----------|
|---------------------------------------------------------------|
|---------------------------------------------------------------|
|-----------------2------0-----32-3-----0----------------------|
|-----3--2--0-------------------------------------------3--2----|


Verse 1:
God Rest Ye Merry Gentlemen
Let nothing you dismay
Remember Christ the Savior
Was born on Christmas Day
To Save us all from Satan's pow'r
When we had gone astray


Chorus:
O tidings of comfort and joy, comfort and joy
O tidings of comfort and joy


Verse 2:
From God our Heav'nly Father
A Blessed Angel came
And unto certain shepherd's
Bro t tidings of the same
How that in Bethlehem was born
The Son of God by name
O tidings of comfort and joy, comfort and joy
O tidings of comfort and joy



Solo Intro
|---------------------------------------------------------------|
|--5----3----1---0----------------------------------------------|
|----------------------2----0-----------------------------------|
|--------------------------------4----0-------------------------|
|---------------------------------------------------------------|
|---------------------------------------------------------------|


Chord progression for solo
Chorus:
Em   Am   D    G


Song Format
Intro
main part 7X with Verse 1 & Chorus
main part 6X with Verse 2 & Chorus
Solo intro
Em   Am   D    G  4x with solo
main part 7X with Verse 1 & Chorus
Наверх