Аккорды «Oomph!»

Oomph!
Постоянное движение вперед, полная самоотдача и великолепное звучание — всё это свойственно Oomph!. В течение 25-ти лет музыкальные произведения этого трио из Нижней Саксонии были сформированы их духом первооткрывательства. Критики, фэны и коллеги единодушно говорят, что эти три парня занимают место среди «самых революционных фигур немецкой музыкальной сцены». Rammstein открыто соглашаются, что они очень сильно вдохновлены данной командой. Их песни можно описать так: рифы стаккато и ритм военного… Читать полностью... Постоянное движение вперед, полная самоотдача и великолепное звучание — всё это свойственно Oomph!. В течение 25-ти лет музыкальные произведения этого трио из Нижней Саксонии были сформированы их духом первооткрывательства. Критики, фэны и коллеги единодушно говорят, что эти три парня занимают место среди «самых революционных фигур немецкой музыкальной сцены». Rammstein открыто соглашаются, что они очень сильно вдохновлены данной командой. Их песни можно описать так: рифы стаккато и ритм военного марша, что стало крайне популярно в конце 1990-х. Oomph! знают, как объединить электронику с роком: своего рода одушевлённая машина музыки с мощными и совершенно разными аранжировками. Группа была основана в 1989-м, в городе Вольфсбург, когда Dero (вокал, барабаны), Crap (гитара, клавишные) и Flux (гитара, сэмплы) нашли свою музыкальную нишу. Их первый альбом, под одноимённым названием Oomph!, был выпущен в 1992-м году. Для их последующих релизов Sperm (1993) и Defekt (1995), музыкальная индустрия пыталась найти новые определения, которые сводились к электро-металу, индастриалу, дэнс-металу, хотя ни один из них не подходил к тому, что делала группа. Начиная с успеха альбома Unrein (1996), ведущие музыкальные лейблы начали интересоваться этой необычной комбинацией стилей. Unrein (1998) стал настоящим клубным хитом, благодаря песне Gekreuzigt, как и альбом Plastik, изданный в 1999-м (включающий хитовые синглы Das weisse Licht и Fieber, исполненную совместно с Nina Hagen), который покорил вершины немецких чартов, и благодаря которому группа Skunk Anansie взяла Oomph! с собой в турне по Европе. Седьмой релиз группы, альбом Ego, изданный в 2001-м году, стал пиком карьеры музыкантов: альбом вошёл в двадцатку лучших в Германии, после чего последовал большой тур по Европе вместе с финскими love-металлистами HIM. Реакция аудитории на концертах и на форуме официального сайта группы — доказательство огромной популярности Oomph!. В 2002-м они отыграли на фестивалях Ozzfest, With Full Force and Mera Luna. В то время как другие группы пытаются выжить в тени успеха Oomph!, сами ребята идут новым путём. «Идя по шагам других, вы не будете оставлять следов!» Согласно этому кредо, они определили для себя изменения и в 2003-м. В конце прошлого года Oomph! записываются на лэйбле GUN Records. Вот как участники группы объясняют свой выбор: «Мы искали сильного и компетентного партнера, который понимает музыку Oomph!, с хорошим каналом распространения музыки, и которому за прошлые годы удалось показать хорошие результаты по работе в этом музыкальном направлении в Европе и Германии. В Gun Records интересовались нами с 1996-го года и поэтому знают Oomph! как свои пять пальцев!» Если говорить о предпоследнем альбоме группы, то стоит упомянуть композицию Dein Feuer. «Песня показывает одну из сторон Oomph!, но это, конечно, не единственная наша сторона», — говорит Flux об этой вещи. «Это очень сложный и меняющийся материал: грубый, мелодичный, атмосферный, и с отличительной лирикой Деро и уникальным пением, немного больше рока и гранжа, но с присутствием нежных и мягких моментов.» Альбом Wahrheit oder Pflicht продолжает курс изобретения нового звучания и новизны. В 2006 году выпущен альбом GlaubeLiebeTod, двойной бест оф Delikatessen, ряд синглов, а 20 июля 2007 года выпущен первый в истории группы концертный DVD "Rohstoff". В 2008 году вышел альбом Monster В феврале 2009 года вышел сингл Sandmann 2009 год — юбилейный год. OOMPH! — 20 лет. 26 февраля 2010 года Oomph! выпустили сборник лучших песен на английском языке — Truth Or Dare. 18 мая 2012 года у Oomph! вышел альбом под названием Des Wahnsinns Fette Beute Скрыть...
Популярные аккорды Oomph!:
алфавиту | просмотрам | случайно
  • Verse:
    E|-------------------------------------------------------------------------------|
    B|-------------------------------------------------------------------------------|
    G|-------------------------------------------------------------------------------|
    D|-------------------------------------------------------------------------------|
    A|-4-4-4-4-4-4-4-4-4-4-4-4-4-6-6-7-7---------------------------------------------|x7
    E|-----------------------------------5-5-5-5-5-5-5-5-5-5-5-5-5-5-5-5-5-5-4-4-2-2-|
    
    Chorus:…
  • Intro
    
    e|----------------------------------------------------------------|
    B|----------------------------------------------------------------|
    G|----------------------------------------------------------------|
    D|----------------------------------------------------------------|
    A|----------------------------------------------------------------|
    D|3---3---3---3---0---0---0---0---2---2---2---2---0---0---0---0---|
    
    e|----------------------------------------------------------------|
    B|----------------------------------------------------------------|
    G|----------------------------------------------------------------|
    D|----------------------------------------------------------------|
    A|----------------------------------------------------------------|
    D|3---3---3---3---0---0---0---0---2---2---2---2---0---0---0---0---|
    
    e|----------------------------------------------------------------|
    B|----------------------------------------------------------------|
    G|----------------------------------------------------------------|
    D|7-7-7-7-7-7-9-9-2-2-2-2-2-2-5-5-3-3-3-3-3-3-2-2-0-0-0-0-0-0-2-2-|
    A|7-7-7-7-7-7-9-9-2-2-2-2-2-2-5-5-3-3-3-3-3-3-2-2-0-0-0-0-0-0-2-2-|
    D|7-7-7-7-7-7-9-9-2-2-2-2-2-2-5-5-3-3-3-3-3-3-2-2-0-0-0-0-0-0-2-2-|
    
    e|----------------------------------------------------------------|
    B|----------------------------------------------------------------|
    G|----------------------------------------------------------------|
    D|7-7-7-7-7-7-9-9-2-2-2-2-2-2-5-5-3-3-3-3-3-3-2-2-0-0-0-0-0-0-2-2-|
    A|7-7-7-7-7-7-9-9-2-2-2-2-2-2-5-5-3-3-3-3-3-3-2-2-0-0-0-0-0-0-2-2-|
    D|7-7-7-7-7-7-9-9-2-2-2-2-2-2-5-5-3-3-3-3-3-3-2-2-0-0-0-0-0-0-2-2-|
    
    Verse
    
    e|----------------------------------------------------------------|
    B|----------------------------------------------------------------|
    G|----------------------------------------------------------------|
    D|----------------------------------------------------------------|
    A|----------------------------------------------------------------|
    D|7-7-7-7-7-7-7-7-2-2-2-2-2-2-2-2-3-3-3-3-3-3-3-3-0-0-0-0-0-0-0-0-|
    
    e|----------------------------------------------------------------|
    B|----------------------------------------------------------------|
    G|----------------------------------------------------------------|
    D|----------------------------------------------------------------|
    A|----------------------------------------------------------------|
    D|7-7-7-7-7-7-7-7-2-2-2-2-2-2-2-2-3-3-3-3-3-3-3-3-0-0-0-0-0-0-0-0-|
    
    e|----------------------------------------------------------------|
    B|----------------------------------------------------------------|
    G|----------------------------------------------------------------|
    D|----------------------------------------------------------------|
    A|----------------------------------------------------------------|
    D|7-7-7-7-7-7-7-7-2-2-2-2-2-2-2-2-3-3-3-3-3-3-3-3-0-0-0-0-0-0-0-0-|
    
    e|----------------------------------------------------------------|
    B|----------------------------------------------------------------|
    G|----------------------------------------------------------------|
    D|----------------------------------------------------------------|
    A|----------------------------------------------------------------|
    D|7-7-7-7-7-7-7-7-2-2-2-2-2-2-2-2-3-3-3-3-3-3-3-3-0-0-0-0-0-0-0-0-|
    
    e|----------------------------------------------------------------|
    B|----------------------------------------------------------------|
    G|----------------------------------------------------------------|
    D|----------------------------------------------------------------|
    A|----------------------------------------------------------------|
    D|3---3---3---3---0---0---0---0---2---2---2---2---0---0---0---0---|
    
    e|----------------------------------------------------------------|
    B|----------------------------------------------------------------|
    G|----------------------------------------------------------------|
    D|----------------------------------------------------------------|
    A|----------------------------------------------------------------|
    D|3---3---3---3---0---0---0---0---2---2---2---2---0---0---0---0---|
    
    Chorus
    
    e|----------------------------------------------------------------|
    B|----------------------------------------------------------------|
    G|----------------------------------------------------------------|
    D|7-7-7-7-7-7-9-9-2-2-2-2-2-2-5-5-3-3-3-3-3-3-2-2-0-0-0-0-0-0-2-2-|
    A|7-7-7-7-7-7-9-9-2-2-2-2-2-2-5-5-3-3-3-3-3-3-2-2-0-0-0-0-0-0-2-2-|
    D|7-7-7-7-7-7-9-9-2-2-2-2-2-2-5-5-3-3-3-3-3-3-2-2-0-0-0-0-0-0-2-2-|
    
    e|----------------------------------------------------------------|
    B|----------------------------------------------------------------|
    G|----------------------------------------------------------------|
    D|7-7-7-7-7-7-9-9-2-2-2-2-2-2-5-5-3-3-3-3-3-3-2-2-0-0-0-0-0-0-2-2-|
    A|7-7-7-7-7-7-9-9-2-2-2-2-2-2-5-5-3-3-3-3-3-3-2-2-0-0-0-0-0-0-2-2-|
    D|7-7-7-7-7-7-9-9-2-2-2-2-2-2-5-5-3-3-3-3-3-3-2-2-0-0-0-0-0-0-2-2-|
    
    e|----------------------------------------------------------------|
    B|----------------------------------------------------------------|
    G|----------------------------------------------------------------|
    D|7-7-7-7-7-7-9-9-2-2-2-2-2-2-5-5-3-3-3-3-3-3-2-2-0-0-0-0-0-0-2-2-|
    A|7-7-7-7-7-7-9-9-2-2-2-2-2-2-5-5-3-3-3-3-3-3-2-2-0-0-0-0-0-0-2-2-|
    D|7-7-7-7-7-7-9-9-2-2-2-2-2-2-5-5-3-3-3-3-3-3-2-2-0-0-0-0-0-0-2-2-|
    
    e|----------------------------------------------------------------|
    B|----------------------------------------------------------------|
    G|----------------------------------------------------------------|
    D|7-7-7-7-7-7-9-9-2-2-2-2-2-2-5-5-3-3-3-3-3-3-2-2-0-0-0-0-0-0-2-2-|
    A|7-7-7-7-7-7-9-9-2-2-2-2-2-2-5-5-3-3-3-3-3-3-2-2-0-0-0-0-0-0-2-2-|
    D|7-7-7-7-7-7-9-9-2-2-2-2-2-2-5-5-3-3-3-3-3-3-2-2-0-0-0-0-0-0-2-2-|
    
    Verse
    
    e|----------------------------------------------------------------|
    B|----------------------------------------------------------------|
    G|----------------------------------------------------------------|
    D|----------------------------------------------------------------|
    A|----------------------------------------------------------------|
    D|7-7-7-7-7-7-7-7-2-2-2-2-2-2-2-2-3-3-3-3-3-3-3-3-0-0-0-0-0-0-0-0-|
    
    e|----------------------------------------------------------------|
    B|----------------------------------------------------------------|
    G|----------------------------------------------------------------|
    D|----------------------------------------------------------------|
    A|----------------------------------------------------------------|
    D|7-7-7-7-7-7-7-7-2-2-2-2-2-2-2-2-3-3-3-3-3-3-3-3-0-0-0-0-0-0-0-0-|
    
    e|----------------------------------------------------------------|
    B|----------------------------------------------------------------|
    G|----------------------------------------------------------------|
    D|----------------------------------------------------------------|
    A|----------------------------------------------------------------|
    D|7-7-7-7-7-7-7-7-2-2-2-2-2-2-2-2-3-3-3-3-3-3-3-3-0-0-0-0-0-0-0-0-|
    
    e|----------------------------------------------------------------|
    B|----------------------------------------------------------------|
    G|----------------------------------------------------------------|
    D|----------------------------------------------------------------|
    A|----------------------------------------------------------------|
    D|7-7-7-7-7-7-7-7-2-2-2-2-2-2-2-2-3-3-3-3-3-3-3-3-0-0-0-0-0-0-0-0-|
    
    e|----------------------------------------------------------------|
    B|----------------------------------------------------------------|
    G|----------------------------------------------------------------|
    D|----------------------------------------------------------------|
    A|----------------------------------------------------------------|
    D|3---3---3---3---0---0---0---0---2---2---2---2---0---0---0---0---|
    
    e|----------------------------------------------------------------|
    B|----------------------------------------------------------------|
    G|----------------------------------------------------------------|
    D|----------------------------------------------------------------|
    A|----------------------------------------------------------------|
    D|3---3---3---3---0---0---0---0---2---2---2---2---0---0---0---0---|
    
    Chorus
    
    e|----------------------------------------------------------------|
    B|----------------------------------------------------------------|
    G|----------------------------------------------------------------|
    D|7-7-7-7-7-7-9-9-2-2-2-2-2-2-5-5-3-3-3-3-3-3-2-2-0-0-0-0-0-0-2-2-|
    A|7-7-7-7-7-7-9-9-2-2-2-2-2-2-5-5-3-3-3-3-3-3-2-2-0-0-0-0-0-0-2-2-|
    D|7-7-7-7-7-7-9-9-2-2-2-2-2-2-5-5-3-3-3-3-3-3-2-2-0-0-0-0-0-0-2-2-|
    
    e|----------------------------------------------------------------|
    B|----------------------------------------------------------------|
    G|----------------------------------------------------------------|
    D|7-7-7-7-7-7-9-9-2-2-2-2-2-2-5-5-3-3-3-3-3-3-2-2-0-0-0-0-0-0-2-2-|
    A|7-7-7-7-7-7-9-9-2-2-2-2-2-2-5-5-3-3-3-3-3-3-2-2-0-0-0-0-0-0-2-2-|
    D|7-7-7-7-7-7-9-9-2-2-2-2-2-2-5-5-3-3-3-3-3-3-2-2-0-0-0-0-0-0-2-2-|
    
    e|----------------------------------------------------------------|
    B|----------------------------------------------------------------|
    G|----------------------------------------------------------------|
    D|7-7-7-7-7-7-9-9-2-2-2-2-2-2-5-5-3-3-3-3-3-3-2-2-0-0-0-0-0-0-2-2-|
    A|7-7-7-7-7-7-9-9-2-2-2-2-2-2-5-5-3-3-3-3-3-3-2-2-0-0-0-0-0-0-2-2-|
    D|7-7-7-7-7-7-9-9-2-2-2-2-2-2-5-5-3-3-3-3-3-3-2-2-0-0-0-0-0-0-2-2-|
    
    e|----------------------------------------------------------------|
    B|----------------------------------------------------------------|
    G|----------------------------------------------------------------|
    D|7-7-7-7-7-7-9-9-2-2-2-2-2-2-5-5-3-3-3-3-3-3-2-2-0-0-0-0-0-0-2-2-|
    A|7-7-7-7-7-7-9-9-2-2-2-2-2-2-5-5-3-3-3-3-3-3-2-2-0-0-0-0-0-0-2-2-|
    D|7-7-7-7-7-7-9-9-2-2-2-2-2-2-5-5-3-3-3-3-3-3-2-2-0-0-0-0-0-0-2-2-|
    
    Bridge
    
    e|----------------------------------------------------------------|
    B|----------------------------------------------------------------|
    G|----------------------------------------------------------------|
    D|7---------------------------------------------------------------|
    A|7---------------------------------------------------------------|
    D|7---------------------------------------------------------------|
    
    e|----------------------------------------------------------------|
    B|----------------------------------------------------------------|
    G|----------------------------------------------------------------|
    D|7---------------------------------------------------------------|
    A|7---------------------------------------------------------------|
    D|7---------------------------------------------------------------|
    
    e|----------------------------------------------------------------|
    B|----------------------------------------------------------------|
    G|----------------------------------------------------------------|
    D|X---------------------------------------------------------------|
    A|X---------------------------------------------------------------|
    D|X---------------------------------------------------------------|
    
    e|----------------------------------------------------------------|
    B|----------------------------------------------------------------|
    G|----------------------------------------------------------------|
    D|X---------------------------------------------------------------|
    A|X---------------------------------------------------------------|
    D|X---------------------------------------------------------------|
    
    Chorus
    
    e|----------------------------------------------------------------|
    B|----------------------------------------------------------------|
    G|----------------------------------------------------------------|
    D|7-7-7-7-7-7-9-9-2-2-2-2-2-2-5-5-3-3-3-3-3-3-2-2-0-0-0-0-0-0-2-2-|
    A|7-7-7-7-7-7-9-9-2-2-2-2-2-2-5-5-3-3-3-3-3-3-2-2-0-0-0-0-0-0-2-2-|
    D|7-7-7-7-7-7-9-9-2-2-2-2-2-2-5-5-3-3-3-3-3-3-2-2-0-0-0-0-0-0-2-2-|
    
    e|----------------------------------------------------------------|
    B|----------------------------------------------------------------|
    G|----------------------------------------------------------------|
    D|7-7-7-7-7-7-9-9-2-2-2-2-2-2-5-5-3-3-3-3-3-3-2-2-0-0-0-0-0-0-2-2-|
    A|7-7-7-7-7-7-9-9-2-2-2-2-2-2-5-5-3-3-3-3-3-3-2-2-0-0-0-0-0-0-2-2-|
    D|7-7-7-7-7-7-9-9-2-2-2-2-2-2-5-5-3-3-3-3-3-3-2-2-0-0-0-0-0-0-2-2-|
    
    e|----------------------------------------------------------------|
    B|----------------------------------------------------------------|
    G|----------------------------------------------------------------|
    D|7-7-7-7-7-7-9-9-2-2-2-2-2-2-5-5-3-3-3-3-3-3-2-2-0-0-0-0-0-0-2-2-|
    A|7-7-7-7-7-7-9-9-2-2-2-2-2-2-5-5-3-3-3-3-3-3-2-2-0-0-0-0-0-0-2-2-|
    D|7-7-7-7-7-7-9-9-2-2-2-2-2-2-5-5-3-3-3-3-3-3-2-2-0-0-0-0-0-0-2-2-|
    
    e|----------------------------------------------------------------|
    B|----------------------------------------------------------------|
    G|----------------------------------------------------------------|
    D|7-7-7-7-7-7-9-9-2-2-2-2-2-2-5-5-3-3-3-3-3-3-2-2-0-0-0-0-0-0-2-2-|
    A|7-7-7-7-7-7-9-9-2-2-2-2-2-2-5-5-3-3-3-3-3-3-2-2-0-0-0-0-0-0-2-2-|
    D|7-7-7-7-7-7-9-9-2-2-2-2-2-2-5-5-3-3-3-3-3-3-2-2-0-0-0-0-0-0-2-2-|
    
    e|----------------------------------------------------------------|
    B|----------------------------------------------------------------|
    G|----------------------------------------------------------------|
    D|7-7-7-7-7-7-9-9-2-2-2-2-2-2-5-5-3-3-3-3-3-3-2-2-0-0-0-0-0-0-2-2-|
    A|7-7-7-7-7-7-9-9-2-2-2-2-2-2-5-5-3-3-3-3-3-3-2-2-0-0-0-0-0-0-2-2-|
    D|7-7-7-7-7-7-9-9-2-2-2-2-2-2-5-5-3-3-3-3-3-3-2-2-0-0-0-0-0-0-2-2-|
    
    e|----------------------------------------------------------------|
    B|----------------------------------------------------------------|
    G|----------------------------------------------------------------|
    D|7-7-7-7-7-7-9-9-2-2-2-2-2-2-5-5-3-3-3-3-3-3-2-2-0-0-0-0-0-0-2-2-|
    A|7-7-7-7-7-7-9-9-2-2-2-2-2-2-5-5-3-3-3-3-3-3-2-2-0-0-0-0-0-0-2-2-|
    D|7-7-7-7-7-7-9-9-2-2-2-2-2-2-5-5-3-3-3-3-3-3-2-2-0-0-0-0-0-0-2-2-|
    
    e|----------------------------------------------------------------|
    B|----------------------------------------------------------------|
    G|----------------------------------------------------------------|
    D|7-7-7-7-7-7-9-9-2-2-2-2-2-2-5-5-3-3-3-3-3-3-2-2-0-0-0-0-0-0-2-2-|
    A|7-7-7-7-7-7-9-9-2-2-2-2-2-2-5-5-3-3-3-3-3-3-2-2-0-0-0-0-0-0-2-2-|
    D|7-7-7-7-7-7-9-9-2-2-2-2-2-2-5-5-3-3-3-3-3-3-2-2-0-0-0-0-0-0-2-2-|
    
    e|----------------------------------------------------------------|
    B|----------------------------------------------------------------|
    G|----------------------------------------------------------------|
    D|7-7-7-7-7-7-9-9-2-2-2-2-2-2-5-5-3-3-3-3-3-3-2-2-0-0-0-0-0-0-2-2-|
    A|7-7-7-7-7-7-9-9-2-2-2-2-2-2-5-5-3-3-3-3-3-3-2-2-0-0-0-0-0-0-2-2-|
    D|7-7-7-7-7-7-9-9-2-2-2-2-2-2-5-5-3-3-3-3-3-3-2-2-0-0-0-0-0-0-2-2-|
    
    Coda
    
    e|----------------------------------------------------------------|
    B|----------------------------------------------------------------|
    G|----------------------------------------------------------------|
    D|----------------------------------------------------------------|
    A|----------------------------------------------------------------|
    D|3---3---3---3---0---0---0---0---2---2---2---2---0---0---0---0---|
    
    e|----------------------------------------------------------------|
    B|----------------------------------------------------------------|
    G|----------------------------------------------------------------|
    D|----------------------------------------------------------------|
    A|----------------------------------------------------------------|
    D|3---3---3---3---0---0---0---0---2---2---2---2---0---0---0---0---|…
  • INTRO:
    e|----------------------------------|
    B|----------------------------------|
    G|-----5-----5-----5-----7-----3----|
    D|---5-----5-----5-----5-----5------|x8
    A|-3-----3-----3-----3-----3-----3--|
    E|----------------------------------|
    
    PRE-CHORUS
    guitar…
  • Intro:
    
    guitar one
    d|-------------------------------------------------------------------------|
    A|-------------------------------------------------------------------------|
    F|-------------------------------------------------------------------------|
    C|-7-7-7-7-7-7-7-7-7-7-7-7-5-5-5-5-5-5-5-5-5-5-5-5-3-3-3-3-3-3-3-3-3-3-3-3-|
    G|-7-7-7-7-7-7-7-7-7-7-7-7-5-5-5-5-5-5-5-5-5-5-5-5-3-3-3-3-3-3-3-3-3-3-3-3-|
    C|-7-7-7-7-7-7-7-7-7-7-7-7-5-5-5-5-5-5-5-5-5-5-5-5-3-3-3-3-3-3-3-3-3-3-3-3-|
    
    d|--------------------------|
    A|--------------------------|
    F|--------------------------|
    C|-2-2-2-2-2-2-2-2-2-2-2-2--|
    G|-2-2-2-2-2-2-2-2-2-2-2-2--|
    C|-2-2-2-2-2-2-2-2-2-2-2-2--|
    
    Guitar…
  • verse:
    d|-12-11-----12-11-----12-11-----12-11-------------------------------------|
    A|-------------------------------------------------------------------------|
    F|-------------------------------------------------------------------------|
    C|-------------------------------------------------------------------------|
    G|-------------------------------------------------------------------------|
    C|-------------------------------------------------------------------------|
    
    chorus…
  • Tuning: [B F# D A E B]
    
    INTRO:
    B||-------------------------|-------------------------|
    F#|-------------------------|-------------------------|
    D||-------------------------|-------------------------|
    A||--8--8-------------------|--6--6-------------------|
    E||--8--8-------------------|--6--6--6-6-6-6-6--4--3--|
    B||--6--6--9-9-9-9-9--8--6--|--4--4-------------------|
    
    B||-------------------------|---------------------------|
    F#|-------------------------|---------------------------|
    D||-------------------------|---------------------------|
    A||--4--4-------------------|--5--5---------------------|
    E||--4--4--4-4-4-4-4--3--1--|--5--5--4-4-4-4-4--3--1--3-|
    B||--2--2-------------------|--3--3---------------------|
    
    VERSE:
    B||--------------|
    F#|--14--13------|
    D||----------10--|
    A||--------------|
    E||--------------|
    B||--------------|
    
    CHORUS:
    B||-------------------------|-------------------------|
    F#|-------------------------|-------------------------|
    D||-------------------------|-------------------------|
    A||--8--8-------------------|--6--6-------------------|
    E||--8--8-------------------|--6--6--6-6-6-6-6--4--3--|
    B||--6--6--9-9-9-9-9--8--6--|--4--4-------------------|
    
    B||-------------------------|---------------------------|
    F#|-------------------------|---------------------------|
    D||-------------------------|---------------------------|
    A||--4--4-------------------|--5--5---------------------|
    E||--4--4--4-4-4-4-4--3--1--|--5--5--4-4-4-4-4--3--1--3-|
    B||--2--2-------------------|--3--3---------------------|
    
    POST-CHORUS:
    B||--------------------------------------------------------------|
    F#|--------------------------------------------------------------|
    D||--6-6--6-6--6-6-----------------------------------------------|
    A||--6-6--6-6--6-6--4-4--4-4-------------------------------------|
    E||--4-4--4-4--4-4--4-4--4-4-------------------------------------|
    B||-----------------2-2--2-2--2-4-6-6-4-7-7-4-6-6-4-7-7-4-6-6-4--|
    
    B||----------------------------------------------|
    F#|----------------------------------------------|
    D||--6-6--6-6--6-6-------------------------------|
    A||--6-6--6-6--6-6--4-4--4-4---------------------|
    E||--4-4--4-4--4-4--4-4--4-4---------------------|
    B||-----------------2-2--2-2--2-4-6-6-4-7-7-4-6--|
    
    END:
    B||----------------|
    F#|----------------|
    D||----------------|
    A||--8-8--8-8--8-8-|
    E||--8-8--8-8--8-8-|
    B||--6-6--6-6--6-6-|…
  • VERSE:
    d|--------------------------------------------------|
    A|--------------------------------------------------|
    F|--------------------------------------------------|
    C|--4-5-4-----4-4-5-4------4-5-4-----4-4-5-4---2----|
    G|--4-5-4-----4-4-5-4------4-5-4-----4-4-5-4---2----|x6
    C|--4-5-4-----4-4-5-4------4-5-4-----4-4-5-4---2----|
    
    CHORUS:
    d|----------------------------------------------------------------------------|
    A|----------------------------------------------------------------------------|
    F|----------------------------------------------------------------------------|
    C|-7-7-7-777\6-6-66-6-4--4---4--77777777-7-7-7-777\6-6-66-6-4-4-4-4-4-4-4-4-4-|
    G|-5-5-5-555\4-4-44-4-4--4---4--77777777-5-5-5-555\4-4-44-4-4-4-4-4-4-4-4-4-4-|
    C|--------------------4--4---4--77777777--------------------4-4-4-4-4-4-4-4-4-|
    
    d|--------------------------------------------------------------------------|
    A|--------------------------------------------------------------------------|
    F|--------------------------------------------------------------------------|
    C|-4-4-4-4442-2-22-2-4-4-4-4-4-4-4-4-4-7-7-7-777\6-6-66-6-4-4-4-4-4-4-4-4-4-|
    G|-2-2-2-2222-2-22-2-4-4-4-4-4-4-4-4-4-5-5-5-555\4-4-44-4-4-4-4-4-4-4-4-4-4-|
    C|----------2-2-22-2-4-4-4-4-4-4-4-4-4--------------------4-4-4-4-4-4-4-4-4-|
    
    VERSE:
    d|--------------------------------------------------|
    A|--------------------------------------------------|
    F|--------------------------------------------------|
    C|--4-5-4-----4-4-5-4------4-5-4-----4-4-5-4---2----|
    G|--4-5-4-----4-4-5-4------4-5-4-----4-4-5-4---2----|x6
    C|--4-5-4-----4-4-5-4------4-5-4-----4-4-5-4---2----|
    
    CHORUS:
    d|----------------------------------------------------------------------------|
    A|----------------------------------------------------------------------------|
    F|----------------------------------------------------------------------------|
    C|-7-7-7-777\6-6-66-6-4--4---4--77777777-7-7-7-777\6-6-66-6-4-4-4-4-4-4-4-4-4-|
    G|-5-5-5-555\4-4-44-4-4--4---4--77777777-5-5-5-555\4-4-44-4-4-4-4-4-4-4-4-4-4-|
    C|--------------------4--4---4--77777777--------------------4-4-4-4-4-4-4-4-4-|
    
    d|--------------------------------------------------------------------------|
    A|--------------------------------------------------------------------------|
    F|--------------------------------------------------------------------------|
    C|-4-4-4-4442-2-22-2-4-4-4-4-4-4-4-4-4-7-7-7-777\6-6-66-6-4-4-4-4-4-4-4-4-4-|
    G|-2-2-2-2222-2-22-2-4-4-4-4-4-4-4-4-4-5-5-5-555\4-4-44-4-4-4-4-4-4-4-4-4-4-|
    C|----------2-2-22-2-4-4-4-4-4-4-4-4-4--------------------4-4-4-4-4-4-4-4-4-|
    
    SOLO:
    guitar…
  • Intro
    e|------------------------------|
    B|------------------------------|
    G|------------------------------|
    D|-----11\3-10\1--4-3-4-8-6-8---|x5
    A|------------------------------|
    D|------------------------------|
    
    After…
  • End Of Verse:
    e|--------------|
    B|--------------|
    G|--------------|
    D|---44--44-----|
    A|---44--44-----|
    D|---44--44-----|
    
    
    Chorus
    e|--------------------------------|
    B|--------------------------------|
    G|--------------------------------|
    D|--0---2---4---0---2---4---------|
    A|--0---2---4---0---2---4---------|
    D|--0---2---4---0---2---4---------|
    
    
    End…
  • Вступление:Gm F C D
    
    Gm
    Warum verbirgst du dich 
                           D#
    Warum lässt du mich raten 
    Warum erwГјrgst du mich 
    Warum kann ich nicht atmen 
    
    Припев:
    Bm                  F#
    Wenn ich dich nicht…
  • Drop A
    
    
    Intro/Chorus
    B|----------------------------------------------------------------------|
    F|----------------------------------------------------------------------|
    D|--------------------------------------------------7-7-7-7-7-7-7-7-----|
    A|--2-2-2-2-2-2-2-2-3-3-3-3-3-3-3-3-5-5-5-5-5-5-5-5-7-7-7-7-7-7-7-7-----|x2
    E|--2-2-2-2-2-2-2-2-3-3-3-3-3-3-3-3-5-5-5-5-5-5-5-5-5-5-5-5-5-5-5-5-----|
    A|--2-2-2-2-2-2-2-2-3-3-3-3-3-3-3-3-5-5-5-5-5-5-5-5---------------------|
    
    B|------------------------------------------------------------------------|
    F|------------------------------------------------------------------------|
    D|---------------------------101010---------------------------------------|
    A|--2-2-2-2-3-3-3-3-4-4-4-5--8-8-8---2-2-2-2-3-3-3-3-4-4-4-5--------------|
    E|--2-2-2-2-3-3-3-3-4-4-4-5----------2-2-2-2-3-3-3-3-4-4-4-5--------------|
    A|--2-2-2-2-3-3-3-3-4-4-4-5----------2-2-2-2-3-3-3-3-4-4-4-5--------------|
    
    Verse
    B|------------------------------------------------------------------------|
    F|------------------------------------------------------------------------|
    D|------------------------------------------------------------------------|
    A|-0-2-------2-3-2--0-2------2-3-3--0-2------2-3-2--0-2-----2-3-2---------|
    E|-0-2-------2-3-2--0-2------2-3-3--0-2------2-3-2--0-2-----2-3-2---------|
    A|-0-2-------2-3-2--0-2------2-3-3--0-2------2-3-2--0-2-----2-3-2---------|
    
    B|----------------------------------------------------------------------|
    F|----------------------------------------------------------------------|
    D|----------------------------------------------------------------------|
    A|-0-2--0-2--0-2--0-2------2-3-2--0-2--0-2--0-2--0-2------2-3-2---------|
    E|-0-2--0-2--0-2--0-2------2-3-2--0-2--0-2--0-2--0-2------2-3-2---------|
    A|-0-2--0-2--0-2--0-2------2-3-2--0-2--0-2--0-2--0-2------2-3-2---------|
    
    B|----------------------------------------------------------------------|
    F|----------------------------------------------------------------------|
    D|----------------------------------------------------------------------|
    A|-0-2--0-2--0-2--0-2------2-3-2--0-2--0-2--0-2-------------0-0---------|
    E|-0-2--0-2--0-2--0-2------2-3-2--0-2--0-2--0-2-------------0-0---------|
    A|-0-2--0-2--0-2--0-2------2-3-2--0-2--0-2--0-2-------------0-0---------|
    
    Chorus
    B|-------------------------------------------------------------------|
    F|-------------------------------------------------------------------|
    D|--------------------------------------------------7-7-7-7-7-7-7-7--|
    A|--2-2-2-2-2-2-2-2-3-3-3-3-3-3-3-3-5-5-5-5-5-5-5-5-7-7-7-7-7-7-7-7--|x2
    E|--2-2-2-2-2-2-2-2-3-3-3-3-3-3-3-3-5-5-5-5-5-5-5-5-5-5-5-5-5-5-5-5--|
    A|--2-2-2-2-2-2-2-2-3-3-3-3-3-3-3-3-5-5-5-5-5-5-5-5------------------|
    
    B|------------------------------------------------------------------------|
    F|------------------------------------------------------------------------|
    D|---------------------------101010----------------------------101010-----|
    A|--2-2-2-2-3-3-3-3-4-4-4-5--8-8-8---2-2-2-2-3-3-3-3-4-4-4-5---8-8-8------|
    E|--2-2-2-2-3-3-3-3-4-4-4-5----------2-2-2-2-3-3-3-3-4-4-4-5--------------|
    A|--2-2-2-2-3-3-3-3-4-4-4-5----------2-2-2-2-3-3-3-3-4-4-4-5--------------|
    
    B|------------------------------------------------------------------------|
    F|------------------------------------------------------------------------|
    D|---------------------------101010---------------------------------------|
    A|--2-2-2-2-3-3-3-3-4-4-4-5--8-8-8---2-2-2-2-3-3-3-3-4-4-4-5--------------|
    E|--2-2-2-2-3-3-3-3-4-4-4-5----------2-2-2-2-3-3-3-3-4-4-4-5--------------|
    A|--2-2-2-2-3-3-3-3-4-4-4-5----------2-2-2-2-3-3-3-3-4-4-4-5--------------|
    
    Verse
    B|------------------------------------------------------------------------|
    F|------------------------------------------------------------------------|
    D|------------------------------------------------------------------------|
    A|-0-2-------2-3-2--0-2------2-3-3--0-2------2-3-2--0-2-----2-3-2---------|
    E|-0-2-------2-3-2--0-2------2-3-3--0-2------2-3-2--0-2-----2-3-2---------|
    A|-0-2-------2-3-2--0-2------2-3-3--0-2------2-3-2--0-2-----2-3-2---------|
    
    B|----------------------------------------------------------------------|
    F|----------------------------------------------------------------------|
    D|----------------------------------------------------------------------|
    A|-0-2--0-2--0-2--0-2------2-3-2--0-2--0-2--0-2--0-2------2-3-2---------|
    E|-0-2--0-2--0-2--0-2------2-3-2--0-2--0-2--0-2--0-2------2-3-2---------|
    A|-0-2--0-2--0-2--0-2------2-3-2--0-2--0-2--0-2--0-2------2-3-2---------|
    
    B|----------------------------------------------------------------------|
    F|----------------------------------------------------------------------|
    D|----------------------------------------------------------------------|
    A|-0-2--0-2--0-2--0-2------2-3-2--0-2--0-2--0-2-----------0-0-----------|
    E|-0-2--0-2--0-2--0-2------2-3-2--0-2--0-2--0-2-----------0-0-----------|
    A|-0-2--0-2--0-2--0-2------2-3-2--0-2--0-2--0-2-----------0-0-----------|
    
    Chorus
    B|-------------------------------------------------------------------|
    F|-------------------------------------------------------------------|
    D|--------------------------------------------------7-7-7-7-7-7-7-7--|
    A|--2-2-2-2-2-2-2-2-3-3-3-3-3-3-3-3-5-5-5-5-5-5-5-5-7-7-7-7-7-7-7-7--|x2
    E|--2-2-2-2-2-2-2-2-3-3-3-3-3-3-3-3-5-5-5-5-5-5-5-5-5-5-5-5-5-5-5-5--|
    A|--2-2-2-2-2-2-2-2-3-3-3-3-3-3-3-3-5-5-5-5-5-5-5-5------------------|
    
    B|------------------------------------------------------------------------|
    F|------------------------------------------------------------------------|
    D|---------------------------101010----------------------------101010-----|
    A|--2-2-2-2-3-3-3-3-4-4-4-5--8-8-8---2-2-2-2-3-3-3-3-4-4-4-5---8-8-8------|
    E|--2-2-2-2-3-3-3-3-4-4-4-5----------2-2-2-2-3-3-3-3-4-4-4-5--------------|
    A|--2-2-2-2-3-3-3-3-4-4-4-5----------2-2-2-2-3-3-3-3-4-4-4-5--------------|
    
    B|------------------------------------------------------------------------|
    F|------------------------------------------------------------------------|
    D|---------------------------101010---------------------------------------|
    A|--2-2-2-2-3-3-3-3-4-4-4-5--8-8-8---2-2-2-2-3-3-3-3-4-4-4-5--------------|
    E|--2-2-2-2-3-3-3-3-4-4-4-5----------2-2-2-2-3-3-3-3-4-4-4-5--------------|
    A|--2-2-2-2-3-3-3-3-4-4-4-5----------2-2-2-2-3-3-3-3-4-4-4-5--------------|
    
    Chorus
    B|-------------------------------------------------------------------|
    F|-------------------------------------------------------------------|
    D|--------------------------------------------------7-7-7-7-7-7-7-7--|
    A|--2-2-2-2-2-2-2-2-3-3-3-3-3-3-3-3-5-5-5-5-5-5-5-5-7-7-7-7-7-7-7-7--|x4
    E|--2-2-2-2-2-2-2-2-3-3-3-3-3-3-3-3-5-5-5-5-5-5-5-5-5-5-5-5-5-5-5-5--|
    A|--2-2-2-2-2-2-2-2-3-3-3-3-3-3-3-3-5-5-5-5-5-5-5-5------------------|
    
    Outro:
    B|----------------------------------------------------------------------|
    F|----------------------------------------------------------------------|
    D|----------------------------------------------------------------------|
    A|-0-2--0-2--0-2--0-2------2-3-2--0-2--0-2--0-2--0-2------2-3-2---------|
    E|-0-2--0-2--0-2--0-2------2-3-2--0-2--0-2--0-2--0-2------2-3-2---------|
    A|-0-2--0-2--0-2--0-2------2-3-2--0-2--0-2--0-2--0-2------2-3-2---------|
    
    B|----------------------------------------------------------------------|
    F|----------------------------------------------------------------------|
    D|----------------------------------------------------------------------|
    A|-0-2--0-2--0-2--0-2------2-3-2--0-2--0-2--0-2-------------------------|
    E|-0-2--0-2--0-2--0-2------2-3-2--0-2--0-2--0-2-------------------------|
    A|-0-2--0-2--0-2--0-2------2-3-2--0-2--0-2--0-2-------------------------|…
  • Intro
    e|--------------|
    b|--------------|
    g|-4--6----7--6-|
    d|-4--4----4--4-|
    a|--------------|
    E|--------------|
    
    
    Distortion Part
    e|--------------------------------------------------|
    b|--------------------------------------------------|
    g|--------------------------7-6-7-6-7-6-7-6---------|
    d|---4-4---4----4---4---4---7-6-7-6-7-6-7-6---------|
    a|---4-4---4----4---4---4---5-4-5-4-5-4-5-4-5-4-2-4-|
    E|-0-2-2-0-2--0-2-0-2-0-2-0-------------------------|
    
    
    Verse
    e|------------|
    b|-14--13--13-|
    g|------------|
    d|------------|
    a|------------|
    E|------------|
    
    
    You…
  • VERSE 1
    E|----2--3--5----------|
    B|-------------4-------|
    G|---------------------|
    D|---------------------|  x 4
    A|---------------------|
    E|---------------------|
    
    
    CHORUS
    E|-------------------------|
    B|-------------------------|
    G|-------------------------|
    D|-00000-44444-22222-55555-|
    A|-00000-44444-22222-55555-|…
  • Intro x1
    
    D|-------------------------|
    A|-------------------------|
    D|-------------------------|
    G|-------------------------|
    H|------12~--13~--10~12~13~|
    e|-12~---------------------|
    
    Verse x4
    
    D|-------------------------------------------------|
    A|-------------------------------------------------|
    D|-------------------------------------------------|
    G|-------------------------------------------------|
    H||-----12~--13~--10~12~13~-----12~--13~--10~12~13~|
    e|-12~---------------------11~---------------------|
    
    Prechorus…
  • verse
    b|---------------------|
    g|---------------------|
    d|-2-h4--2-h4--2-h4----|
    a|-2-h4--2-h4--2-h4----|
    e|-0-h2--0-h2--0-h2----|
    B|---------------------|
    
    b|----------------------|
    g|----------------------|
    d|-2-h4--2-h4--2-h4---4-|
    a|-2-h4--2-h4--2-h4-4---|
    e|-0-h2--0-h2--0-h2-----|
    B|----------------------|
    
    chorus
    b|------------------------|
    g|------------------------|
    d|------------------------|
    a|----2222222225555555----|
    e|----2222222225555555----|
    B|----0000000003333333----|…
  • Tuning:Drop C tabed for Drop D
    
    Guitars I&II
    e|---------------------|
    B|---------------------|
    G|---------------------|X6
    D|-5535--555/8855--555-|
    A|-5535--555/8855--555-|
    D|-5535--555/8855--555-|
    
    
    0:24 Guitars…
  • Verse: /
    
    Chorus:
    e|-----------------------------------|
    h|-----------------------------------|  4x
    g|-----------------------------------|
    d|--7-7-7-7-7-7-7-7-3-3-3-3-5-5-5-5--|
    a|--7-7-7-7-7-7-7-7-3-3-3-3-5-5-5-5--|
    D|--7-7-7-7-7-7-7-7-3-3-3-3-5-5-5-5--|
    
    Chorus…
  • intro:
    d|--13-----------------|
    A|-----13-14-11-13-14--|
    F|---------------------|
    C|---------------------|
    G|---------------------|
    C|---------------------|
    
    Verse:
    d|--13----------------12-----------------|
    A|-----13-14-11-13-14----13-14-11-13-14--|
    F|---------------------------------------|
    C|---------------------------------------|
    G|---------------------------------------|x4
    C|---------------------------------------|
    
    d|--11----------------------------|
    A|-----14-13----13----------------|
    F|-----------13----13---------10--|
    C|----------------------13-11-----|
    G|--------------------------------|
    C|--------------------------------|
    
    Chorus
    d|-------------------------------------------------------------------------|
    A|-------------------------------------------------------------------------|
    F|-------------------------------------------------------------------------|
    C|--8-8-8-8-8-8-8-8-8-8-8-8-8-8-8-8-4-4-4-4-4-4-4-4-4-4-4-4-4-4-4-4--------|
    G|--8-8-8-8-8-8-8-8-8-8-8-8-8-8-8-8-4-4-4-4-4-4-4-4-4-4-4-4-4-4-4-4--------|
    C|--8-8-8-8-8-8-8-8-8-8-8-8-8-8-8-8-4-4-4-4-4-4-4-4-4-4-4-4-4-4-4-4--------|
    
    d|-------------------------------------------------------------------------|
    A|-------------------------------------------------------------------------|
    F|-------------------------------------------------------------------------|
    C|--6-6-6-6-6-6-6-6-6-6-6-6-6-6-6-6-1-1-1-1-1-1-1-1-1-1-1-1-1-1-1-1--------|
    G|--6-6-6-6-6-6-6-6-6-6-6-6-6-6-6-6-1-1-1-1-1-1-1-1-1-1-1-1-1-1-1-1--------|
    C|--6-6-6-6-6-6-6-6-6-6-6-6-6-6-6-6-1-1-1-1-1-1-1-1-1-1-1-1-1-1-1-1--------|
    
    Verse:
    d|--13----------------12-----------------|
    A|-----13-14-11-13-14----13-14-11-13-14--|
    F|---------------------------------------|
    C|---------------------------------------|
    G|---------------------------------------|x2
    C|---------------------------------------|
    
    d|--11----------------------------|
    A|-----14-13----13----------------|
    F|-----------13----13---------10--|
    C|----------------------13-11-----|
    G|--------------------------------|
    C|--------------------------------|
    
    Chorus…
  • Intro
    
    Guitar One
    B |------------------------------------------------------|
    F#|------------------------------------------------------|
    D |--4-4-4-4-4-6-----------------------------------------|
    A |--4-4-4-4-4-6--4-4-4-4-4-7--5-5-5-5-5-4--2-2-2-2-2-4--|
    E…
  • INTRO:(clean)
    d|-------------------------------------------------------------|
    A|-------------------------------------------------------------|
    F|-------------------------------7-7-7-7-7-7-------------------|
    C|-9-9-9-9-9-9--5--5-5-5-5-5-5-5-7-7-7-7-7-7-7--7-7-7-7-7-7-7--|
    G|-9-9-9-9-9-9--5--5-5-5-5-5-5-5-5-5-5-5-5-5-7--7-7-7-7-7-7-7--|
    C|-9-9-9-9-9-9--5--5-5-5-5-5-5-5-------------7--7-7-7-7-7-7-7--|
    
    d|-------------------------------------------------------------|
    A|-------------------------------------------------------------|
    F|-------------------------------7-7-7-7-7-7-------------------|
    C|-9-9-9-9-9-9--5--5-5-5-5-5-5-5-7-7-7-7-7-7-7-----------------|
    G|-9-9-9-9-9-9--5--5-5-5-5-5-5-5-5-5-5-5-5-5-7-----------------|
    C|-9-9-9-9-9-9--5--5-5-5-5-5-5-5-------------7-----------------|
    
    (distorted)
    d|-------------------------------------------------------------|
    A|-------------------------------------------------------------|
    F|-------------------------------------------------------------|
    C|-9-9-9-9-9-9--5--5-5-5-5-5-5-5-0-0-0-0-0-0-7--7-7-7-7-7-7-7--|
    G|-9-9-9-9-9-9--5--5-5-5-5-5-5-5-0-0-0-0-0-0-7--7-7-7-7-7-7-7--|x2
    C|-9-9-9-9-9-9--5--5-5-5-5-5-5-5-0-0-0-0-0-0-7--7-7-7-7-7-7-7--|
    
    VERSE:
    d|------------------------------------------------------------------------|
    A|------------------------------------------------------------------------|
    F|--------------------------------------------6667-7-9-9---------6667799--|
    C|-9-9-9-9-----------9-9-9-9---------5557779996667-7-9-95557779996667799--|x2
    G|-9-9-9-9-----------9-9-9-9---------5557779994445-5-7-75557779994445577--|
    C|-9-9-9-9-----------9-9-9-9---------555777999----------555777999---------|
    
    d|------------------------------------------------|
    A|------------------------------------------------|
    F|------------------------------------------------|
    C|-5-5-5-5-----7-7-7-7------9-9-9-7-9--9-9-9-7-9--|x3
    G|-5-5-5-5-----7-7-7-7------7-7-7-5-7--7-7-7-5-7--|
    C|-5-5-5-5-----7-7-7-7----------------------------|
    
    d|-----------------------|
    A|-----------------------|
    F|-----------------------|
    C|-5-5-5-5-----7-7-7-7---|
    G|-5-5-5-5-----7-7-7-7---|
    C|-5-5-5-5-----7-7-7-7---|
    
    CHORUS:
    d|-------------------------------------------------------------|
    A|-------------------------------------------------------------|
    F|-------------------------------------------------------------|
    C|-9-9-9-9-9-9--5--5-5-5-5-5-5-5-0-0-0-0-0-0-7--7-7-7-7-7-7-7--|x2
    G|-9-9-9-9-9-9--5--5-5-5-5-5-5-5-0-0-0-0-0-0-7--7-7-7-7-7-7-7--|
    C|-9-9-9-9-9-9--5--5-5-5-5-5-5-5-0-0-0-0-0-0-7--7-7-7-7-7-7-7--|
    
    VERSE:
    d|------------------------------------------------------------------------|
    A|------------------------------------------------------------------------|
    F|--------------------------------------------6667-7-9-9---------6667799--|
    C|-9-9-9-9-----------9-9-9-9---------5557779996667-7-9-95557779996667799--|x2
    G|-9-9-9-9-----------9-9-9-9---------5557779994445-5-7-75557779994445577--|
    C|-9-9-9-9-----------9-9-9-9---------555777999----------555777999---------|
    
    d|------------------------------------------------|
    A|------------------------------------------------|
    F|------------------------------------------------|
    C|-5-5-5-5-----7-7-7-7------9-9-9-7-9--9-9-9-7-9--|x3
    G|-5-5-5-5-----7-7-7-7------7-7-7-5-7--7-7-7-5-7--|
    C|-5-5-5-5-----7-7-7-7----------------------------|
    
    d|-----------------------|
    A|-----------------------|
    F|-----------------------|
    C|-5-5-5-5-----7-7-7-7---|
    G|-5-5-5-5-----7-7-7-7---|
    C|-5-5-5-5-----7-7-7-7---|
    
    CHORUS:
    d|-------------------------------------------------------------|
    A|-------------------------------------------------------------|
    F|-------------------------------------------------------------|
    C|-9-9-9-9-9-9--5--5-5-5-5-5-5-5-0-0-0-0-0-0-7--7-7-7-7-7-7-7--|x2
    G|-9-9-9-9-9-9--5--5-5-5-5-5-5-5-0-0-0-0-0-0-7--7-7-7-7-7-7-7--|
    C|-9-9-9-9-9-9--5--5-5-5-5-5-5-5-0-0-0-0-0-0-7--7-7-7-7-7-7-7--|
    
    INTERLUDE:(clean)
    d|-------------------------------------------------------------|
    A|-------------------------------------------------------------|
    F|-------------------------------7-7-7-7-7-7-------------------|
    C|-9-9-9-9-9-9--5--5-5-5-5-5-5-5-7-7-7-7-7-7-7--7-7-7-7-7-7-7--|
    G|-9-9-9-9-9-9--5--5-5-5-5-5-5-5-5-5-5-5-5-5-7--7-7-7-7-7-7-7--|
    C|-9-9-9-9-9-9--5--5-5-5-5-5-5-5-------------7--7-7-7-7-7-7-7--|
    
    d|-------------------------------------------------------------|
    A|-------------------------------------------------------------|
    F|-------------------------------7-7-7-7-7-7-------------------|
    C|-9-9-9-9-9-9--5--5-5-5-5-5-5-5-7-7-7-7-7-7-7-----------------|
    G|-9-9-9-9-9-9--5--5-5-5-5-5-5-5-5-5-5-5-5-5-7-----------------|
    C|-9-9-9-9-9-9--5--5-5-5-5-5-5-5-------------7-----------------|
    
    CHORUS:
    d|-------------------------------------------------------------|
    A|-------------------------------------------------------------|
    F|-------------------------------------------------------------|
    C|-9-9-9-9-9-9--5--5-5-5-5-5-5-5-0-0-0-0-0-0-7--7-7-7-7-7-7-7--|
    G|-9-9-9-9-9-9--5--5-5-5-5-5-5-5-0-0-0-0-0-0-7--7-7-7-7-7-7-7--|x8
    C|-9-9-9-9-9-9--5--5-5-5-5-5-5-5-0-0-0-0-0-0-7--7-7-7-7-7-7-7--|
    
    d|-----------|
    A|-----------|
    F|-----------|
    C|-9-9-9-9\--|
    G|-9-9-9-9\--|
    C|-9-9-9-9\--|…
  • Tuning Drop D, 1 Step down, CGCfad
    
    
    [VERSE]
    
    
    d|---------------------------------------|
    a|---------------------------------------|
    f|---------------------------------------|
    C|--------3------0--2-------2--0-2-3-6---|
    G|---2-2--3-3-3--0--2--2-2--2--0-2-3-6---|
    C|---2-2--3-3-3--0--2--2-2--2--0-2-3-6---|
    P.M.…
  • Intro [Repeat Twice]
    E|-------------------|
    B|-------------------|
    G|-------------------|
    D|-2--4-5-7-2--4-4-7-|
    A|-2--4-5-7-2--4-5-7-|
    E|-0--2-3-5-0--2-3-5-|
    
    Verse 1 [Repeat 4 Times]
    E|---------|
    B|---------|
    G|---------|
    D|---------|
    A|---------|
    E|-0-2-3-5-|
    
    After…
  • Main Riff/Verse Riff
    e|------------------------------|
    B|------------------------------|
    G|------------------------------|
    D|-2-5-7-8-7--2-5-7-8-7--2-2--2-|
    A|-2-5-7-8-7--2-5-7-8-7--2-2--2-|
    E|-0-3-5-6-5--0-3-5-6-5--0-0--0-|
    .…
  • Em         D                  Am C
    Wir haben uns nichts mehr zu sagen
    Em         D                  Am C
    Und alles ist mehr Schein als Sein
    Em         D                  Am C
    So vieles kann man stumm ertragen
    Em…
  • Em               G      D           C
    Ich zieh deine Fäden, wohin du auch gehst
    Em               G        D              Em
    Die Welt ist die Bühne, auf der du nun stehst
                   G                  D…
  • Bm                 D
    Du hast dich tagelang gewunden,
    Bm                 A
    Du schreist und blutest schon seit Stunden.
    G                  A
    Denn heute werd ich neu geborn.
    Bm               D              
    Ich konnte…
  • C                     E
    Mein Schicksal war ein leeres Blatt,
     Am              E
    Papier kann so geduldig sein.
     Am              E
    Ich hatte dieses Warten satt,
     C                  E
    Seit Wochen fiel mir nichts mehr…
  • Em
    Dunnes Eis
     Em
    Ein Paradies für jeden
     Em
    Der zu tanzen weiß
    
     Em
    Alles löst sich auf
     C               Am
    Alle Gefühle - alle Visionen
     Em
    Komm und küss den Lauf
     C                  Am
    Öffne den Mund und…
  • F#m Am x4
    
             Am              F#m            Am 
    Du bringst mich aus dem Takt Takt Taktgefuhl
    F#m            Am            Dm     Am   Dm
    Fuhlst du wie ich mich heut ganz in die verlier
    Am…
  • D5 D5 D5 / Eb5
    D5 D5 D5 / Eb5
    D5 D5 D5 / Eb5
    A#m F           x2
    
    Dies ist kein Lied uber Gluck
    Dies ist kein Lied uber Hoffnung
    Dies ist kein Lied uber Frieden und Freude
    Dies ist ein Lied uber dich!
    
    D5…
  • Cm Db Cm x3  Fm Bb   [x2]
    
    Cm                  
    Ich schneid mir Zeichen in meine Haut
    Und in mein Fleisch brenn ich Ihren Namen
    Leg mich auf Nagel, auf Feuer und Eis
    Ich tu mir weh, ich kenne kein Erbarmen
    
    Cm Db…
  • D C D C / G5
    D C D F5 / G5
    D C D C / G5
    D C D Eb / F
    
    Dm           Bb           Cm       Gm    Gm / F    
    Seit tausend Tagen in der fremden Region
                                               Gm / F 
    Marschieren sie…
  • A F#m C#m B [x2]
    
    C#m                B
    Warte, dass die zeit verrint
    A                              B
    Denn ich will dich wiedersehn
    C#m                B
    Warte, dass die nacht beginnt
    A…
  • D D/C Bb / Fm / Gm Bb
    D D/C Bb / Fm / Gm
    
    D     D/C
    Armes (Armes)
     Bb              Fm 
    Deutschland (Deutschland)
    Gm                    Bb
    Kannst du deine Kinder sehen?
    D   D/C      Bb/Fm   Gm                 Bb
    Wie…
  • Cm                     G#m
    Ich zieh mein liebstes Kleidchen an,
     Bb                        G#m
    auf hohen Hacken, vor meinem Spiegel.
    Cm                     G#m     
    Ich puder mir die Wangen rot, 
     Bb…
  • Dm C5 G5 Fm x2
    
    Dm          Eb            G#m            G                Dm    4:--0-3-0-3-3-0-3-0-3-2-0-
    Du bist ein boses kleines Opfer in der Gang fuhlst du dich cool,
    Dm          Eb            G#m            G…
  • 1:------------------------------------9--4------------------
    2:-4--6--7---7--4---6-6-4-6-7---4--6-------6--4--6-6-4-6-7--
    3:---------3------------------------------------------------
    
    B5 C#5
    Eb5 F5 F#5 F#5 G#5 C#5 F5…
  • D5  x2
    D5 C5 Gm A    x2
    
            Dm                       C5 
    Wenn Du wusstest wie kalt Deine Haut ist,
                     Gm    A
    Wenn ich Dich beruhr.
             Dm                     C5 
    Wenn Du wusstest wie sehr…
  • F#m Bm D5 E5   x2
    
          F#m              Bm
    Warum hast Du so grose Augen?
          D5                 E5
    Warum hast Du so straffe Haut?
          F#m              Bm
    Warum hast Du so grose Bruste?
          D5…
  • E5 E5 E5 E5 D5 E5 E5 E5 E5   x2
    
    E5 E5 E5 E5 D5 E5 E5 E5 E5 D5
    Am Am Am Am Gm Am Am Am Am Bm C5
    C5 C5 C5 C5 Bm C5 C5 C5 C5 C#5 D5 Eb5	  
    
    E5
     Alle Wolfe sind bereit
    E5
     Und die Lammer aufgereiht
    E5…
  • Gm Dm A Dm     x2
    
    Gm
    Komm, mein schoner Leichtmatrose
    D5
    Lass uns bummeln gehn
    Gm
    Lass herab die Seemannshose
    D5
    Alle solln uns fummeln sehn
    Gm
    Komm, mein schoner Leichtmatrose
    D5
    Stopfe mir das Leck
    Gm
    Du…
  • Dm C#5    x2
    
    Dm               C#5                     Dm
    Ich lieg hier im Regen, der Kampf ist vorbei
                      C#5                    F5   Eb5
    Kann mich nicht bewegen und doch bin ich frei
    Dm…
  • G#m    x4
    
    G#m G#m F#m G#m Bb5
    E5 E5 Eb5 E5 F#5
    C#5 C#5 Bm C#5 F5
    Eb5 Eb5 C#5 Eb5 F5
    
    G#m                                 Bb5
      In den letzten Zugen, deine Augen leer
    E5                 
    Sehen wir dich am Boden…
  • Dm Bb5 A
    Dm A Bb5 Gm
    Dm A Bb5 Gm Fm Gm
    
    Bbm Am Gm Am Bbm Am A    x2
    
    Am                               Gm
      Deine Schultern sind aus Marmor
    Am                            Gm
     Biegsam ist dein Hals und weis
    Am…
  • G#m E5 C#5 C#5 F5   x4
    
    Ebm                         Ebm   Ebm    C#5 C#5 Ebm
    Pass blos gut auf, was deine Eltern sagen
    Ebm                                C#m  Ebm
    Denn deine Eltern haben immer Recht
    Ebm…
  • Em Em D5 Em C5 C5    x4
    
    Em                D5
    Ein Konig ohne Reich
    Em                  D5       Em 
    Seit tausend Jahren liegt er da
    Em                  D5
    Und die Nacht endet nie
    Em                    D5
    Verdammt…
  • Dm C5 Gm Eb5 
    Dm Am Bb5 Eb5
    
        Dm                 C#5
    Die Nacht ist jung und wir sind frei
       Dm                C#5
    So frei um uns zu entscheiden
       Dm                 C#5
    Du bist so kalt, ich halt dich fest…
  • Gm E5 
    F#m E5 A        
    B5 C#m G#m A
    
    C#m                                               D5   Gm
    Der Larm wird leiser — ich schwebe in die Endlosigkeit. 
    C#m                                            D5    Gm
    Immer…
  • Em
     Sie war noch keine dreizehn Jahre
          C5                Bm
    Und sie trug ein blutenweiases Kleid
    Em
     Die langen blondgelockten Haare
            C5               Bm
    Umspielten Augen voller Traurigkeit
    Em
     Sie fanden…
  • Am C5 D5 E5 F5
    Am C5 D5 F5 G5 Am   x2
    
    Am Am Am Gm
    Am Am Am C5
    Am Am Am Gm
    C5 C5 C5 E5  x2
    
    Dm                                    E5 
     Er schleicht sich an die Menschen Menge
       F5                          G 
    Er…
  • Am G F5 E5 G     x2
    
    Am                       G 
    Alle alle fragen jeder jeder will es wissen
            F5                         E5          G 
    Warum warum kommt ihr klar wieso wieso geht es mir beschissen
    Am…
  • G5 A#5 F5 D#5 (4x) 
     
    G5 A#5 A5 
    Ich hab dich lange genug vermisst, 
    C5 A5 G5 
    hab mich gefragt, wo du gerade bist 
    G5 A#5 A5 
    und ob du immer noch an den Nägeln kaust. 
    G5 A#5 A5 
    Wir hatten alles perfekt geplant…
Наверх