Аккорды Oomph! - Ego

Добавлено: @romashka
Дата добавления: 24 Декабря 2013г.
Рейтинг:
0.0
Просмотров: 925
VERSE 1
E|----2--3--5----------|
B|-------------4-------|
G|---------------------|
D|---------------------|  x 4
A|---------------------|
E|---------------------|


CHORUS
E|-------------------------|
B|-------------------------|
G|-------------------------|
D|-00000-44444-22222-55555-|
A|-00000-44444-22222-55555-| x 4
E|-00000-44444-22222-55555-|


VERSE 2
(same as Verse 1)

CHORUS

SYNTH INTERLUDE
E|----------------------|
B|----------------------|
G|----------------------|
D|------4---5---4-------| x 4
A|----2---2-------2-----|
E|----------------------|


PIANO + VOCALS
E|-----------10-------------|
B|--5--7--8------8--7--8----|
G|--------------------------|
D|--------------------------|
A|--------------------------|
E|--------------------------|


CHORUS

ENDING PIANO SECTION
E|--------7--------10--8--7--|
B|--7--8-----5--7------------|
G|---------------------------|
D|---------------------------| x 2
A|---------------------------|
E|---------------------------|
Но если и музыка нас оставит, что будет тогда с нашим миром? (Гоголь)
Мы стремимся к созданию контента, соответствующего всем нормам законодательства и уважающего интеллектуальную собственность. Мы также придаем большое значение тому, чтобы не задеть никого и не оскорбить чьи-либо чувства. Если у вас есть вопросы или претензии по размещенному материалу, пожалуйста, сообщите нам об этом.
Шрифт
-
0
+
Прокрутка
-
0
+
Стоп
Наверх