Аккорды Oomph! - Brennende Liebe

Добавлено: @romashka
Дата добавления: 24 Декабря 2013г.
Рейтинг:
0.0
Просмотров: 560
Транспонировать - +
End Of Verse:
e|--------------|
B|--------------|
G|--------------|
D|---44--44-----|
A|---44--44-----|
D|---44--44-----|


Chorus
e|--------------------------------|
B|--------------------------------|
G|--------------------------------|
D|--0---2---4---0---2---4---------|
A|--0---2---4---0---2---4---------|
D|--0---2---4---0---2---4---------|


End Of Verse:
e|--------------|
B|--------------|
G|--------------|
D|---44--44-----|
A|---44--44-----|
D|---44--44-----|

Chorus
e|-------------------------|
B|-------------------------|
G|-------------------------|
D|--0---2---4---0---2---4--|x2
A|--0---2---4---0---2---4--|
D|--0---2---4---0---2---4--|

Bridge
e|------------------------|
B|------------------------|
G|---4-4-4----------------|
D|---4-4-4----4---5---7---|x3
A|---2-2-2----4---5---7---|
D|------------4---5---7---|

e|------------------------|
B|------------------------|
G|---4-4-4----------------|
D|---4-4-4---4-4-4---99---|
A|---2-2-2---4-4-4---99---|
D|-----------4-4-4---99---|
             . . .

Chorus
e|-------------------------|
B|-------------------------|
G|-------------------------|
D|--0---2---4---0---2---4--|x2
A|--0---2---4---0---2---4--|
D|--0---2---4---0---2---4--|
Наверх