Аккорды Песни из видеоигр - Katawa Shoujo Title Theme (из видеоигры "Wiosna")

Добавлено: @romashka
Дата добавления: 02 Ноября 2018г.
Рейтинг:
0.0
Просмотров: 8
Транспонировать - +
Piano 1: 
(0:01-0:12)                                
e--9~---------9-7-5-------/9~-------------------14--------------14-10----------------------------------|
B--------------------7-6---------------12-14-14-----14-11-------------12-10----------12p10h12h14h15p14-|
G------------------------------------------------------------------------------13----------------------|
D------------------------------------------------------------------------------------------------------|
A------------------------------------------------------------------------------------------------------|
E------------------------------------------------------------------------------------------------------|

(0:12-0:18)
e--------------------------|
B--10-9-10~-----9~---7--7~-|
G--------------------------|
D--------------------------|
A--------------------------|
E--------------------------|

Acoustic Guitar 1:
(0:20-0:35)
e-----------------------------------------------------------------|
B-------------------------7-6-------------------------------------|
G---------3--6~---------------6-3-----6-4-3-----------------------|
D--4--6-------------------------------------4------------4-6-3-4~-|
A-----------------------------------------------------------------|
E-----------------------------------------------------------------|

(0:40-0:59)
e------------------------------------------------------------------------------------------|
B--------------------7-4----------4--------------------------------------------------------|
G---------3--6~----------3----------3------------------------------------------------------|
D--4--6--------------------4-----------4-----------------8-9-9-----8-6---8~------6~-----4~-|
A-----------------------------------------6---8--------------------------------------------|
E------------------------------------------------------------------------------------------|

Base Of Chords:
(0:01-0:18)
C# A# G# 
C# F#  D  G# ~
D   G#  F#

(0:20-1:13)
F#  F# D#  C#
F#  F# 
F#  F# D#  C#
F#  F   F#  
F#  A# G#       
comments powered by Disqus
Наверх