Аккорды Песни из видеоигр - Travelers (из видеоигры "Outer Wilds")

Добавлено: @romashka
Дата добавления: 07 Июля 2019г.
Рейтинг:
0.0
Просмотров: 12
Транспонировать - +
   D          E         F#        E         
e|---------|----------|---------|-------3--|
B|-----2---|-320-02---|-----2---|-320-02---|
G|---2-----|----2---2-|---2---2-|----2---2-|
D|-2-------|----------|-2-------|----------|
A|---------|----------|---------|----------|
E|---------|----------|---------|----------|

 D           E         F#         E
e|---------|----------|---------|----------|
B|-----2---|-320-02---|-----2---|-320-02---|
G|---2---2-|----2---2-|---2---2-|----2---2-|
D|-0-------|----------|-0-------|----------|
A|---------|----------|---------|----------|
E|---------|----------|---------|----------|
comments powered by Disqus
Наверх