Аккорды Песни из видеоигр - The Anomaly (из видеоигры "Metro 2033")

Добавлено: @romashka
Дата добавления: 15 Августа 2019г.
Рейтинг:
0.0
Просмотров: 8
Транспонировать - +
Main Part | Основная часть:
e|---------------------------------------|
B|---------------------------------------|
G|---------------------------------------|
D|---------------------------------------|
A|------9---7-10----------------9---7-10-|
E|---0-----------------------0-----------|

The end | Концовка:
e|--------------|
B|--------------|
G|--------------|
D|--------------|
A|------3----2--|
E|---0----------|
comments powered by Disqus
Наверх