Аккорды Песни из видеоигр - Hopes And Dreams (из видеоигры "Undertale")

Добавлено: @romashka
Дата добавления: 27 Августа 2019г.
Рейтинг:
0.0
Просмотров: 10
Транспонировать - +
Intro:                                                           
       Н         Н            Н        Н            Н         Н         
E||-------------13--------|---------------------|------------13-|
B||-----------------------|--13-----------------|--11-----------|
G||*--10------------------|---------------------|---------------|
D||*----------------------|---------------------|---------------|
A||-----------------------|---------------------|---------------|
E||-----------------------|---------------------|---------------|

   Н        Н            Н         Н            Н        Q     Q     
---------------------|----------------------|--17-------------18-|
---------------------|------------10--------|--------------------|
--10-----------------|--10------------------|--------------------|
---------------------|----------------------|--------------------|
---------------------|----------------------|--------------------|
---------------------|----------------------|--------------------|

   Н         Н            Н        Н           
--17--------13--------|--10------------------||
----------------------|----------------------||
----------------------|---------------------*||
----------------------|---------------------*||
----------------------|----------------------||
----------------------|----------------------||

Electric guitar starts:
                                                  TP       TP        
   Е  Е                      Е  Е  Е  Е  Е  Е     Н        Н         
--10--6----------------------5-----------------|-----------1-|
--------------------------------6--------------|-------------|
-----------------------------------7--5--3-----|-------------|
--------------------------------------------3--|--3----------|
-----------------------------------------------|-------------|
-----------------------------------------------|-------------|

  TP                  TP       TP          TP                
  W                   Н        Н           W                 
-------------------|-----------1--------|------|
--1----------------|--------------------|------|
-------------------|--3-----------------|------|
-------------------|--------------------|--3---|
-------------------|--------------------|------|
-------------------|--------------------|------|

  TP       TP          TP           TP      TP       TP        
  Н        Н           Н.           Q       Н        Н         
--------------------|--1------------3----|--1----------|
--------------------|--------------------|-----------1-|
-----------2--------|--------------------|-------------|
--0-----------------|--------------------|-------------|
--------------------|--------------------|-------------|
--------------------|--------------------|-------------|

  TP                  TP       TP          TP                
  W                   Н        Н           W                 
-------------------|-----------1--------|-----|
-------------------|--------------------|--1--|
--3----------------|--------------------|-----|
-------------------|--3-----------------|-----|
-------------------|--------------------|-----|
-------------------|--------------------|-----|

  TP       TP          TP                  TP       TP        
  Н        Н           W                   Н        Н         
-----------1--------|-------------------|-------------|
--------------------|-------------------|-------------|
--3-----------------|-------------------|-----------2-|
--------------------|--3----------------|--0----------|
--------------------|-------------------|-------------|
--------------------|-------------------|-------------|

  TP           TP      TP       TP          TP                
  Н.           Q       Н        Н           W                 
--1------------3----|--1-----------------|-----|
--------------------|-----------1--------|-----|
--------------------|--------------------|--3--|
--------------------|--------------------|-----|
--------------------|--------------------|-----|
--------------------|--------------------|-----|

    Q    Q    Q    Q       Q    Q    Q    Q       Q    Е  Е  Q    Q     
|---1-------------------|----------------------|--------------------|
|-------------1---------|------------1---------|-------------1----4-|
|*-------3---------3----|-------3---------3----|----------3---------|
|*----------------------|--3-------------------|--3----3------------|
|-----------------------|----------------------|--------------------|
|-----------------------|----------------------|--------------------|

  Q    Q    Е  Е  Q     4x   Q    Q    Q    Q       Е  Q    Q    S  S Q     
------------------------||---1-------------------|----------------------|
--3----4----3--1--------||-------------1---------|----------1----3p-1---|
------------------3----*||*-------3---------3----|-----3--------------3-|
-----------------------*||*----------------------|--3-------------------|
------------------------||-----------------------|----------------------|
------------------------||-----------------------|----------------------|

  Q    Q    Е  Q    Е     Е  S  S  Q    Q    Q     x4
-----------------------|---------------------------||
------------1--4----3--|--L--4p-3p-1---------------||
-------3---------------|----------------3---------*||
--3--------------------|---------------------3----*||
-----------------------|---------------------------||
-----------------------|---------------------------||

Fun fact - This section is taken from Flowey's:
   Q                                              Е  Е  Q    Q     
---------------------------------------------------------------|
-----------------------------------------------------1--3------|
*--3----------------------------------------------3----------3-|
*--------------------------------------------------------------|
---------------------------------------------------------------|
---------------------------------------------------------------|

Boss Fight:
  Q    Е  Е  Q           Q       Q    Е  Е  Q    Q       Н        Н         
------------------------------|-------------1----6----|--3--------1-|
--1----1--3--1----------------|--3----3--4------------|-------------|
-------------------------3----|-----------------------|-------------|
------------------------------|-----------------------|-------------|
------------------------------|-----------------------|-------------|
------------------------------|-----------------------|-------------|

Fun fact - This section is taken from Flowey's:
  Е                                              Q    Е  Q    Q     
----------------------------------------------------------------|
------------------------------------------------------1--3------|
--3----------------------------------------------3------------3-|
----------------------------------------------------------------|
----------------------------------------------------------------|
----------------------------------------------------------------|

Boss Fight:
  Е  Е  Е  Е  Q           Q       Q    Е  Е  Q    Q       Н        Н           
-------------------------------|-------------1----6----|--3--------1------||
--1--1--1--3--1----------------|--3----3--4------------|------------------||
--------------------------3----|-----------------------|-----------------*||
-------------------------------|-----------------------|-----------------*||
-------------------------------|-----------------------|------------------||
-------------------------------|-----------------------|------------------||

Bars 30-33 shifted up m2:
   Q                        Q    Q    Q       Е  Q    Q    S  S  Q     
---2---------------------------------------|-----------------------|
----------------------------0----2----0----|-----0----2----4p-2p-0-|
*------------------------------------------|-----------------------|
*------------------------------------------|--4--------------------|
-------------------------------------------|-----------------------|
-------------------------------------------|-----------------------|

  Q    Q    Е  Q    Е     Е  S  S  Q    Q    Q       Q    Q    Q    Q     
---------------0-------|--------------------------|--2----------------|
-------0----2-------4--|--L--5p-4p-2----0---------|-------0----2----0-|
-----------------------|--------------------------|-------------------|
--4--------------------|---------------------4----|-------------------|
-----------------------|--------------------------|-------------------|
-----------------------|--------------------------|-------------------|

  Е  Q    Q    S  S  Q       Q    Q    Е  Q    Е     Е  Е  Е  Q    Е  Е  Е     
--------------------------|--2---------7--6-------|--------------------------||
-----0----2----4p-2p-0----|-------0------------7--|--L-----------------------||
--------------------------|-----------------------|-----8--6--4----6--4-----*||
--4-----------------------|-----------------------|----------------------4--*||
--------------------------|-----------------------|--------------------------||
--------------------------|-----------------------|--------------------------||

  Q    Q    Е  Q    Е     Е  Е  Q    Q    Q       Н        Q.     Е   
-------2----2--2----2--|--L--2--0---------0----|--2--------7--------|
-----------------------|-------------4---------|------------------7-|
-----------------------|-----------------------|--------------------|
-----------------------|-----------------------|--------------------|
-----------------------|-----------------------|--------------------|
-----------------------|-----------------------|--------------------|

  Н        Н           Q    Q    Е  Q    Е     Е  Е  Q    Q    Q     
--------------------|-------2----2--2----2--|--L--2--0---------0-|
--L-----------------|-----------------------|-------------4------|
--------------------|-----------------------|--------------------|
--------------------|-----------------------|--------------------|
--------------------|-----------------------|--------------------|
--------------------|-----------------------|--------------------|

  Q    Q    Q    Q       Н        Н             Q    Q    Е  Q    Е   
--2-------------------|--------------------||--------2----2--2----2-|
-------2---------0----|--L-----------------||-----------------------|
------------3---------|--------------------||*----------------------|
----------------------|--------------------||*----------------------|
----------------------|--------------------||-----------------------|
----------------------|--------------------||-----------------------|

        TP   TP   TP      TP       TP     TP                       
  Е  Е  Q    Q    Q       Н        Q.     Е     Н        Н         
--L--2--0---------0----|--2--------7---------|-------------|
-------------4---------|------------------7--|--L----------|
-----------------------|---------------------|-------------|
-----------------------|---------------------|-------------|
-----------------------|---------------------|-------------|
-----------------------|---------------------|-------------|

                                TP   TP   TP      TP   TP   TP   TP    
  Q    Q    Е  Q    Е     Е  Е  Q    Q    Q       Q    Q    Q    Q     
-------2----2--2----2--|--L--2--0---------0----|--2----7----6----7-|
-----------------------|-------------4---------|-------------------|
-----------------------|-----------------------|-------------------|
-----------------------|-----------------------|-------------------|
-----------------------|-----------------------|-------------------|
-----------------------|-----------------------|-------------------|

  Н        Н             Q    Q    Е  Q    Е     Е  Е  Q    Q    Q     
--L------------------||-----------------------|--------------------|
---------------------||--4----4----4--4----4--|--L--4--2----0------|
--------------------*||-----------------------|------------------1-|
--------------------*||-----------------------|--------------------|
---------------------||-----------------------|--------------------|
---------------------||-----------------------|--------------------|

  Q    Q    Е  Q    Е     Е  Е  Q    Q    Q       W                 
-----------------------|------------------2----|--4--|
-------4----4--4----4--|--L--4--2----4---------|-----|
-----------------------|-----------------------|-----|
-----------------------|-----------------------|-----|
-----------------------|-----------------------|-----|
-----------------------|-----------------------|-----|

  Н        Q    Q       W                   Н        Н          
--L------------------|-------------------|-------------||
-----------4---------|--2----------------|--L----------||
----------------4----|-------------------|-------------||
---------------------|-------------------|-------------||
---------------------|-------------------|-------------||
---------------------|-------------------|-------------||
comments powered by Disqus
Наверх