Аккорды Песни из видеоигр - E1M1 (из видеоигры "Doom")

Добавлено: @romashka
Дата добавления: 06 Января 2020г.
Рейтинг:
0.0
Просмотров: 20
Транспонировать - +
e|---------------------------------------------------------|
B|---------------------------------------------------------|
G|---------------------------------------------------------|
D|---------------------------------------------------------|
A|-----7-----5-----3-----1-----2-3-----7-----5-----3-----1-|
E|-0-0---0-0---0-0---0-0---0-0-----0-0---0-0---0-0---0-0---| 2x
 
e|---------------------------------------------------------|
B|---------------------------------------------------------|
G|---------------------------------------------------------|
D|-----7-----5-----3-----1-----2-3-----7-----5-----3-----1-|
A|-0-0---0-0---0-0---0-0---0-0-----0-0---0-0---0-0---0-0---|
E|---------------------------------------------------------|
 
e|---------------------------------------------------------|
B|---------------------------------------------------------|
G|---------------------------------------------------------|
D|---------------------------------------------------------|
A|-----7-----5-----3-----1-----2-3-----7-----5-----3-----1-|
E|-0-0---0-0---0-0---0-0---0-0-----0-0---0-0---0-0---0-0---|
 
e|---------------------------------------------------------|
B|---------------------------------------------------------|
G|-----6-----4-------------------------4-----2-------------|
D|-----------------7-----5-----6-7-----------------5-----3-|
A|-4-4---4-4---4-4---4-4---4-4-----2-2---2-2---2-2---0-0---|
E|---------------------------------------------------------|
 
e|---------------------------------------------------------|
B|---------------------------------------------------------|
G|---------------------------------------------------------|
D|---------------------------------------------------------|
A|-----7-----5-----3-----1-----2-3-----7-----5-----3-----1-|
E|-0-0---0-0---0-0---0-0---0-0-----0-0---0-0---0-0---0-0---|
comments powered by Disqus
Наверх