Аккорды Песни из видеоигр - Мелодия Гюнтера О 'Дима из The Witcher 3 (из видеоигры "Ведьмак 3")

Добавлено: @romashka
Дата добавления: 21 Мая 2021г.
Рейтинг:
0.0
Просмотров: 247
Транспонировать - +
Verse 1
He smiles fair as spring, as to him he draws you;
 
e|------5-5-6-5-5-----0--------------|
B|---0------------6-6---4-4----------|
G|-----------------------------------|
D|-----------------------------------|
A|-----------------------------------|
E|-----------------------------------|
 
 
His tongue sharp and silvery as he implores you.
 
e|------5-5-6-5-5-----0--------------|
B|---0------------6-6---4-4----------|
G|-----------------------------------|
D|-----------------------------------|
A|-----------------------------------|
E|-----------------------------------|
 
Your wishes he grants, as he swears to adore you,
 
e|-----------------------------------|
B|---0-0---0-0-0-0-4-6-0-0-----------|
G|-------5---------------------------|
D|-----------------------------------|
A|-----------------------------------|
E|-----------------------------------|
 
Gold, silver, jewels- he lays riches before you.
 
e|-----------------------------------|
B|---0-0---0-0-0-4-6-0-0-------------|
G|-------5---------------------------|
D|-----------------------------------|
A|-----------------------------------|
E|-----------------------------------|
 
Verse 2
Dues need be repaid, and he will come for you
 
e|------5-5-6-5-5-----0--------------|
B|---0------------6-6---4-4----------|
G|-----------------------------------|
D|-----------------------------------|
A|-----------------------------------|
E|-----------------------------------|
 
All to reclaim, no smile to console you.
 
e|----5-5-6-5-5-----0----------------|
B|--------------6-6---4-4------------|
G|-----------------------------------|
D|-----------------------------------|
A|-----------------------------------|
E|-----------------------------------|
 
He'll snare you in bonds, eyes glowin' a-fire
 
e|-----------------------------------|
B|---0-0---0-0-0-4-6-0-0-------------|
G|-------5---------------------------|
D|-----------------------------------|
A|-----------------------------------|
E|-----------------------------------|
 
To gore and torment you, till the stars expire.
 
e|-----------------------------------|
B|---0-0---0-0-0-0-0-4-6-0-0---------|
G|-------5---------------------------|
D|-----------------------------------|
A|-----------------------------------|
E|-----------------------------------|
Наверх