Аккорды Песни из видеоигр - Ellie's song (из видеоигры "The Last Of Us")

Добавлено: @romashka
Дата добавления: 07 Марта 2022г.
Рейтинг:
0.0
Просмотров: 48
Транспонировать - +
Am          D/F#        G           C   C/B
E-----------|-----------|-----------|----------|
B-1---1-----|-----3-----|-0---0-----|----------|
G-----------|-2---------|-----------|----------| (x2)
D---2-----2-|---0-----0-|---0-----0-|---2---2--|
A-0-----0---|-----------|-----------|-3---2----|
E-----------|-2-----2---|-3-----3---|----------|

  Am          D/F#        Em          C
E-----------|-----------|-----------|----------|
B-1---1-----|-----3-----|-----0-----|-----1----|
G-----------|-2---------|-0---------|-0--------|
D---2-----2-|---0-----0-|---2-----2-|---2-----2|
A-0-----0---|-----------|-----------|-3-----3--|
E-----------|-2-----2---|-0-----0---|----------|

  G           D           Em          C    D
E-----------|-----------|-----------|------2---|
B-----0-----|-----3-----|-----0-----|-1----3---|
G-----------|-2---------|-0---------|-0----2---| (x2)
D---0-----0-|-0-0---0-0-|---2-----2-|-2----0---|
A-----------|-----------|-----------|-3--------|
E-3-----3---|-----------|-0-----0---|----------|

  G           D           Em          C    D
E-----------|-----------|-----------|----------|
B-----0-----|-----3-----|-----0-----|-----1----|
G-----------|-2---------|-0---------|-0--------|
D---0-----0-|-0-0---0-0-|---2-----2-|---2-----2|
A-----------|-----------|-----------|-3-----3--|
E-3-----3---|-----------|-0-----0---|----------|

  G           D           Em          C    
E-----------|-----------|-----------|----------|
B-----0-----|-----3-----|-----0-----|-1--------|
G-----------|-2---------|-0---------|-0--------|
D---0-----0-|-0-0---0-0-|---2-----2-|-2--------|
A-----------|-----------|-----------|-3--------|
E-3-----3---|-----------|-0-----0---|----------|

  G           D           Em          C    D
E-----------|-----------|-----------|------2---|
B-----0-----|-----3-----|-----0-----|-1----3---|
G-----------|-2---------|-0---------|-0----2---| (x2)
D---0-----0-|-0-0---0-0-|---2-----2-|-2----0---|
A-----------|-----------|-----------|-3--------|
E-3-----3---|-----------|-0-----0---|----------|

  G           D           Em          C    D
E-----------|-----------|-----------|----------|
B-----0-----|-----3-----|-----0-----|-----1----|
G-----------|-2---------|-0---------|-0--------|
D---0-----0-|-0-0---0-0-|---2-----2-|---2-----2|
A-----------|-----------|-----------|-3-----3--|
E-3-----3---|-----------|-0-----0---|----------|

  G           D           Em        
E-----------|-----------|-0---------|----------|
B-----0-----|-----3-----|-0---------|----------|
G-----------|-2---------|-0---------|----------|
D---0-----0-|-0-0---0-0-|-2---------|----------|
A-----------|-----------|-2---------|----------|
E-3-----3---|-----------|-0---------|----------| 

Играется с каподастром на 4-м ладу!
Наверх