Аккорды Песни из видеоигр - You're Not Alone (из видеоигры "Final Fantasy IX")

Добавлено: @vitos
Дата добавления: 01 Июля 2016г.
Рейтинг:
0.0
Просмотров: 484
Транспонировать - +
                                        1st time
SOUNDS BEST DISTORTED                         
                                               
Intro                                           
e----|-----|----------|----0|-0-0-0----|----------------|  
B-1--|-----|-1-1-1-0--|-----|-------3-1|-1-0---0-1-0---0| 
G---2|-0-2-|---------2|-0-2-|----------|-----2-------2--|          
D----|----2|----------|-----|----------|----------------|  Repeat x1          
A----|-----|----------|-----|----------|----------------|
E----|-----|----------|-----|----------|----------------|

                                       |----------------|
                                       |-1-0---1-0------|
                                       |-----2-----2-0-2|
                                       |----------------|
                                       |----------------|
                                       |----------------|
                                                 /
                                                /
                                               /
                                        2nd Time
Ver 1
e----|---5-3-0|-----------0--|----------0-7b8-7|
B-1-0|--------|-1-3-3-1-3----|------1-3--------|
G----|-2------|-------------2|-2---------------|
D----|--------|--------------|-----------------|
A----|--------|--------------|-----------------|
E----|--------|--------------|-----------------|


Ver 2
e-5-3-5-7-8|--3-0----------0-|----------------|
B----------|------3--3-1-3---|-----0-1-0------|
G----------|----------------2|-2----------0--2|
D----------|-----------------|----------------|    
A----------|-----------------|----------------|
E----------|-----------------|----------------|


Repeat ver 1 & ver 2, then start again right from the beginning or just make up an outro and finish!
Наверх