Аккорды Песни из видеоигр - That's The Way I Like It (из видеоигры "Sonic Adventure 2")

Добавлено: @vitos
Дата добавления: 04 Июля 2016г.
Рейтинг:
0.0
Просмотров: 427
Транспонировать - +
Intro (After first part of the Guitar Intro)
G|----------------2--1-------0--2
D|------------4---------4--2-----
A|----0-2------------------------
E|--2----------------------------


Second part (Part with trumpet lead)

G|---------------------------------------------------------
D|---------------------------------------------------------
A|--3--3--3-3-3-3-1--1--1-1-1-1----------------------------
E|------------------------------1--1--1-1-1-1-3--3--3-3-3-3


Third Part (Part with guitar lead)

G|------------------------------------------------------------
D|------------------------------------------------------------
A|--3--3-3-3-3-3-3--------------------------------------------
E|-----------------1--1-1-1-1-1-1-3--3-3-3-3-3-3-1--1--1--1--3

G|------------------------------------------------------------
D|------------------------------------------------------------
A|--3--3-3-3-3-3-3--------------------------------------------
E|-----------------1--1-1-1-1-1-1-3--3-3-3-3-3-3-5--5--5--5--3

G|-----------------------------------------------------
D|-----------------------------------------------------
A|-----------------------------------------------------
E|--1--1--1-0-1-3------5--5--5-3-5-3------1--1--1-0-1-3

G|----------------------------
D|----------------------------
A|----------------------------
E|--1-1-1---1-1-1---3--3--3--3

G|------------------------------------------------------------
D|------------------------------------------------------------
A|--3--3-3-3-3-3-3--------------------------------------------
E|-----------------1--1-1-1-1-1-1-3--3-3-3-3-3-3-1--1--1--1--3

G|------------------------------------------------------------
D|------------------------------------------------------------
A|--3--3-3-3-3-3-3--------------------------------------------
E|-----------------1--1-1-1-1-1-1-3--3-3-3-3-3-3-5--5--5--5--3

G|------------------------------------------------------
D|------------------------------------------------------
A|---------------------------------3--------------------
E|--1--1--1-0-1-3------5--5--5-3-5--------1--1--1-0-1-3-

G|----------------------------
D|----------------------------
A|------------------1--1--1--1
E|--4-4-4---4-4-4-------------


Part Four (The part with guitar slides, and 3rd guitar kicks in)

G|---------------------------------------------------------------
D|---------------------------------------------------------------
A|--3--3-3-3-3-3-3-3-3-3-3-3-3-3-3-0--0-0-0-0-0-0-0-0-0-0-0-0-0-0
E|---------------------------------------------------------------

G|-------------------------------------------------------
D|-------------------------------------------------------
A|--1--1-1-1-1-1-1-1-1-1-1-1-1-1-1-----------------------
E|---------------------------------3---1---2---3--3--3--3

G|---------------------------------------------------------------
D|---------------------------------------------------------------
A|--3--3-3-3-3-3-3-3-3-3-3-3-3-3-3-0--0-0-0-0-0-0-0-0-0-0-0-0-0-0
E|---------------------------------------------------------------

G|----------------------------------------------------------
D|----------------------------------------------------------
A|--1--1-1-1-1-1-1-1-1-1-1-1-1-1-1--------------------------
E|---------------------------------1--1---1-1---3--3---3-3-3


Ending (Let this note ring)

G|------
D|------
A|--3---
E|------


TAB ORDER:
---------
Intro x1
Second Part x2
Third Part x1
Fourth Part x1
Second Part x2
Third Part x1
Fourth Part x2
Ending x1
Наверх