Аккорды Rammstein - Roter Sand

Добавлено: @romashka
Дата добавления: 05 Сентября 2019г.
Рейтинг:
0.0
Просмотров: 17
Транспонировать - +
Intro: Em E4
e ee cis e ee cis  d cis d e d cis a (x2)
E|---------------------------------------------------|
B|---------------------------------------------------|
G|---------------------------------------------------|
D|-2---2-2--------2---2-2----------------------------|
A|----------4--------------4----5--4--5--7---5--4--0-|
E|---------------------------------------------------|

(strophe)
1.
E|--------------------|
B|--------------------|
G|------0-----------3-|
D|--------2-------2---|
A|---2----------2-----|
E|-0----------0-------|

Em           E4
Eine Liebe, ein Versprechen
Em              E4
Sagt, ich komm zurueck zu dir
Em               E4
Nun ich muss es leider brechen,
Em            E4
Seine Kugel steckt in mir
Em          E4
Eine liebe, zwei Pistolen

2.
E|----------------------------|
B|----------------------------|
G|-------0----------------0---|
D|---------2----------------2-|
A|----2----------------2------|
E|-3-----------------2--------|

Em/G             Em/F#
(Eine zielt mir ins Gesicht)
   Em               E4
Er sagt, ich haette dich gestohlen,
Em/G                 Em/F#
Dass du mich liebst weiss er nicht.

Chorus:
G
Roter Sand und zwei Patronen
Am              C
Eine stirbt im Pulverkuss.
G
Die Zweite soll ihr Ziel nicht schonen,
Am              Cm
Steckt jetzt tief in meiner Brust.

G Am C G Am Cm
Em E4

Em            E4
Eine Liebe, ein Versprechen
Em            E4
Ach das Blut laeuft aus dem Mund
Em            E4
Und keiner wird mich raechen,
Em            E4
Sinnlos gehe ich zu Grund.
Em           E4
Eine Liebe, zwei Pistolen
Em/G            Em/F#
Einer konnte schneller zielen
Em              E4
Nun ich bin es nicht gewesen,

Em/G           Em/F#
Jetzt gehoerst du ihm.

Interlude = Intro: Em E4
e ee cis e ee cis  d cis d e d cis a (x2)
E|---------------------------------------------------|
B|---------------------------------------------------|
G|---------------------------------------------------|
D|-2---2-2--------2---2-2----------------------------|
A|----------4--------------4----5--4--5--7---5--4--0-|
E|---------------------------------------------------|

Chorus:
G
Roter Sand und zwei Patronen
Am              C
Eine stirbt im Pulverkuss.
G
Die Zweite soll ihr Ziel nicht schonen,
Am              Cm
Steckt jetzt tief in meiner Brust.
G
Roter Sand und zwei Patronen
Am              C
Eine stirbt im Pulverkuss.
G
Die Zweite soll ihr Ziel nicht schonen,
Am              Cm
Steckt jetzt tief in meiner Brust.
G
Roter Sand und zwei Patronen
Am              C
Eine stirbt im Pulverkuss.
G
Die Zweite soll ihr Ziel nicht schonen,
Am              Cm
Steckt jetzt tief in meiner Brust.

G
Roter Sand und zwei Patronen
Am              C
Eine stirbt im Pulverkuss.
G
Die Zweite soll ihr Ziel nicht schonen,
Am              Cm
Steckt jetzt tief in meiner Brust.

G
Roter Sand und weisse Tauben
Am              C
Laben sich an meinem Blut.
G
Am Ende gibt es doch ein Ende,
Am              C
Bin ich doch zu etwas gut.

Chorus:
G
Roter Sand und zwei Patronen
Am              C
Eine stirbt im Pulverkuss.
G
Die Zweite soll ihr Ziel nicht schonen,
Am              Cm
Steckt jetzt tief in meiner Brust.
comments powered by Disqus
Наверх