Аккорды Slapshot - Might Makes Right

Добавлено: @romashka
Дата добавления: 01 Апреля 2018г.
Рейтинг:
0.0
Просмотров: 225
Транспонировать - +
Tuning: Both Guitars Standard

Guitar 1:                Guitars 1 & 2:
e|-----------------|     e|-----------------|
B|-----------------|     B|-----------------|
G|---------9-------|     G|---------9-------|
D|-7-7-7-7-9--9--9-|     D|-7-7-7-7-9--9--9-|
A|-7-7-7-7-7--9--9-|     A|-7-7-7-7-7--9--9-|
E|-5-5-5-5----7--7-| x4  E|-5-5-5-5----7--7-| x12

Guitars 1 & 2:                      Guitars 1 & 2:
e|-------------------------------|  e|-----------------|
B|-------------------------------|  B|-----------------|
G|-------------------------------|  G|---------9-------|
D|-7----7-5----5-4----4-6--------|  D|-7-7-7-7-9--9--9-|
A|-7----7-5----5-4----4-6--------|  A|-7-7-7-7-7--9--9-|
E|-5----5-3----3-2----2-4--------|  E|-5-5-5-5----7--7-| x2

Guitars 1 & 2:                      Gutiars 1 & 2:
e|-------------------------------|  e|-----------------|
B|-------------------------------|  B|-----------------|
G|-------------------------------|  G|---------9-------|
D|-7----7-5----5-4----4-6--------|  D|-7-7-7-7-9--9--9-|
A|-7----7-5----5-4----4-6--------|  A|-7-7-7-7-7--9--9-|
E|-5----5-3----3-2----2-4--------|  E|-5-5-5-5----7--7-| x10

Guitars 1 & 2:                      Guitars 1 & 2:
e|-------------------------------|  e|-----------------|
B|-------------------------------|  B|-----------------|
G|-------------------------------|  G|---------9-------|
D|-7----7-5----5-4----4-6--------|  D|-7-7-7-7-9--9--9-|
A|-7----7-5----5-4----4-6--------|  A|-7-7-7-7-7--9--9-|
E|-5----5-3----3-2----2-4--------|  E|-5-5-5-5----7--7-| x2

Guitars 1 & 2:                      Gutiars 1 & 2:
e|-------------------------------|  e|-----------------|
B|-------------------------------|  B|-----------------|
G|-------------------------------|  G|---------9-------|
D|-7----7-5----5-4----4-6--------|  D|-7-7-7-7-9--9--9-|
A|-7----7-5----5-4----4-6--------|  A|-7-7-7-7-7--9--9-|
E|-5----5-3----3-2----2-4--------|  E|-5-5-5-5----7--7-| x10

Guitars 1 & 2:                      Guitars 1 & 2:
e|-------------------------------|  e|-----------------|
B|-------------------------------|  B|-----------------|
G|-------------------------------|  G|---------9-------|
D|-7----7-5----5-4----4-6--------|  D|-7-7-7-7-9--9--9-|
A|-7----7-5----5-4----4-6--------|  A|-7-7-7-7-7--9--9-|
E|-5----5-3----3-2----2-4--------|  E|-5-5-5-5----7--7-| x2

Guitars 1 & 2:
e|-------------------------------|
B|-------------------------------|
G|-------------------------------|
D|-7----7-5----5-4----4-6--------|
A|-7----7-5----5-4----4-6--------|
E|-5----5-3----3-2----2-4--------|

Guitars 1 & 2:
e|----------------------------------------------------|
B|----------------------------------------------------|
G|---------9---------------9---------------9----------|
D|-7-7-7-7-9--9--9-7-7-7-7-9--9--9-7-7-7-7-9--9--9-7--|
A|-7-7-7-7-7--9--9-7-7-7-7-7--9--9-7-7-7-7-7--9--9-7--|
E|-5-5-5-5----7--7-5-5-5-5----7--7-5-5-5-5----7--7-5--|


| /  slide up
| \  slide down
| h  hammer-on
| p  pull-off
| ~  vibrato
| +  harmonic
| x  Mute note
===============================================================================
Наверх