Аккорды Урфин Джюс - Мегаломания

Добавлено: @romashka
Дата добавления: 27 Января 2022г.
Рейтинг:
0.0
Просмотров: 42
Транспонировать - +
[Вступление и рифф на A7 в куплетах 1 и 2:]
     A7                                                 
E||--------------------------|--------------------------|
B||--------------------------|--------------------------|
G||--------------------------|--------------------------|
D||--------5--------2--------|--5-----4-----2-----------|
A||--0--0--0--0--0--0--0--0--|--0--0--0--0--0--0--3-----|
E||--------------------------|--------------------------|

A7                                               A7
Я совсем не музыкант, но люблю играть на гитаре,
A7                                                   A7
Только громко до сих пор я на ней играть не решался.
D                  C                  A7
Очень долго прятал и скрывал я свой талант,
D                C                 A7
Сёдня я решился, громко принялся играть.

A7                                               A7
Чем играю дольше я, тем я больше сам вырастаю,
A7                               A7
И теперь никто уж мне не мешает.
D                       C                   A7
Нет маленькой квартиры, где так было тесно мне (оу!);
D                       C               Bb
Вот комната всё шире, и я тоже стал большим.
Bb                      A7
Вдруг совсем исчезли стены, и я стою перед толпой!

[Проигрыш; он же играется на A7 в куплете 3:]
     A7                      4x
E||--5--5--5--5--5--5--5-----||
B||--5--5--5--5--8--5--7-----||
G||--6--6--6--6--6--6--6----*||
D||--5--5--5--5--5--5--5----*||
A||--7--7--7--7--7--7--7-----||
E||--5--5--5--5--5--5--5-----||

D    C  D    C D        D    C  D  C    D
Горы цветов, улыбки, взгляды поклонниц, крики, 
D   C  D C   D    D    C D   C D    A7
И репортёров тыщи ждут меня, меня.
D     C  D C  D     D     C D  C   D
Вот я стою на сцене перед огромным залом,
D       C D C  D        D   C   D   C   D   C  A7
Все восклицают дружно: «Джимми, Джимми, Джимми Пейдж».
D     C  D C  D     D       C  D  C   D
Вот я стою на трапе в белой роскошной шляпе,
D   C D C D     D     C  D  C   D      D C D C
Я покидаю город после своих гастролей!

D                     C              D    C D C
Я так устал, что интервью давать мне лень;
D                     C           Bb
И небрежно всем я махнул рукой своей…
Bb                A7
Рядом что-то затрещало, будто выломали дверь.

[Проигрыш]:
     A7
E||------------------------|------------------------||
B||------------------------|------------------------||
G||---------5--------------|---------5-------------*||
D||----5h7---------7--5----|----5h7---------7------*||
A||--7---------------------|--7---------------------||
E||------------------------|------------------------||

A7                                               A7
В комнату вошли соседи, около меня стали кругом;
A7                              A7
В комнате один лишь я и ругань.
D                    C            A7
Там, где простирался и ревел аэродром,
D                     C                 Bb   A7
Тётя с толстым задом, дядя с полным животом. 

В первом, втором и последнем куплетах вместо аккордов A7, D и C 
можно сыграть соответствующие квинты.
Наверх