Аккорды Урфин Джюс - Актёр в чёрно-белой ленте

Добавлено: @romashka
Дата добавления: 03 Апреля 2022г.
Рейтинг:
0.0
Просмотров: 38
Транспонировать - +
[Основной рифф; здесь сыграть его 8 раз]:
   Dm
E|-----------------|-----------------|-----------------|---------------|
B|-------6---6---6-|-----------------|-------6---6---6-|---------------|
G|-7-5---5---5---5-|---7-5-----------|-7-5---5---5---5-|---------------|
D|-7---7-----------|-------7-5-------|-7---7-----------|---------5-----|
A|-5---------------|-----------8-5---|-5---------------|---5-7-8----8--|
E|-----------------|---------------8-|-----------------|---------------|

    Em/B    Em/A#   A7       A7/G
Был вечером ветер и яростный дождь,
   Em/B   Em/A#       A7      A7/G
На мокрую тряпку весь город похож.
   Em/B   Em/A#      A7       A7/G
Прошедшая ночь превращается в ложь,
  Em/B   Em/A#      A7       A7/G
И утро лежит, как заточенный нож.

[Основной рифф сыграть 2 раза]

Em/B  Em/A#  A7        A7/G
Серое небо висит над душой,
Em/B       Em/A#     A7       A7/G
Скрип тормозов над сырой мостовой.
Em/B      Em/A#     A7        A7/G
Холодно в комнате – ты не встаёшь,
  Em/B   Em/C#    A7/E F#7
И утро лежит, как заточенный нож.

[Проигрыш; здесь сыграть два раза, далее в куплете те же аккорды 2 раза 
перебором с альтернативной концовкой (см. ниже), один раз боем с ней же]:
  Dm                                  Bb/D
|-1-1-1-0-0-0-----|---0-0-0-1-1-0-0-|-1-1-1-0-0-0-----|---0-0-0-1-1-0-0-|
|-3-3-3-3-3-3-3-3-|-3-3-3-3-3-3-3-3-|-3-3-3-3-3-3-3-3-|-3-3-3-3-3-3-3-3-|
|-2-2-2-2-2-2-2-2-|-2-2-2-2-2-2-2-2-|-3-3-3-3-3-3-3-3-|-3-3-3-3-3-3-3-3-|
|-0-0-0-0-0-0-0-0-|-0-0-0-0-0-0-0-0-|-0-0-0-0-0-0-0-0-|-0-0-0-0-0-0-0-0-|
|-----------------|-----------------|-----------------|-----------------|
|-----------------|-----------------|-----------------|-----------------|

  Gm7                                 Am7
|-3-3-3-3-3-3-3-3-|-3-3-3-3-3-3-3-3-|-3-3-3-1-1-1-0-0-|-0-1-1-1-3-3-1-1-|
|-6-6-6-5-5-5-3-3-|-3-5-5-5-6-6-5-5-|-1-1-1-1-1-1-1-1-|-1-1-1-1-1-1-1-1-|
|-3-3-3-3-3-3-3-3-|-3-3-3-3-3-3-3-3-|-2-2-2-2-2-2-2-2-|-2-2-2-2-2-2-2-2-|
|-5-5-5-5-5-5-5-5-|-5-5-5-5-5-5-5-5-|-2-2-2-2-2-2-2-2-|-2-2-2-2-2-2-2-2-|
|-5-5-5-5-5-5-5-5-|-5-5-5-5-5-5-5-5-|-0-0-0-0-0-0-0-0-|-0-0-0-0-0-0-0-0-|
|-3-3-3-3-3-3-3-3-|-3-3-3-3-3-3-3-3-|-----------------|-----------------|

[Альтернативная концовка этого риффа в куплете]:
|-------8p6p5-5------|
|-8p6p5-------5------|
|--------------------|
|--------------------|
|--------------------|
|--------------------|

   Dm           Bb/D         Gm7  Am7
 – Серое небо и серая грязь,
   Dm              Bb/D         Gm7  Am7
   Серых предметов взаимосвязь.
     Dm                 Bb/D         Gm7  Am7
   Я вижу кругом только серую грязь!

[Основной рифф сыграть 2 раза]

 Em/B      Em/A#  A7      A7/G
Увидишь ты синего неба куски
      Em/B      Em/A#    A7        A7/G
Над макушкой своей и встаёшь на носки,
  Em/B     Em/A#  A7      A7/G
И тянешься пальцами к облакам.
      Em/B   Em/C#  A7/E F#7
Вдруг больно бьют тебя по рукам…

[Далее гитара]:
    Dm                                                                 8x
||--------5--------|-------4--------|----------------|-----------------||
||--------6--------|-------6--------|-------8--------|-------6---------||
||*---7------7---7-|---7------7---7-|---7---7--7---7-|---7---7--7---7-*||
||*-7---7------7---|-7---7------7---|-7---7------7---|-7---7------7---*||
||-----------------|----------------|----------------|-----------------||
||-----------------|----------------|----------------|-----------------||

[бас]:
G|-----------|-------------|--------------|-----------5--|-/7---5------|--5---7------|
D|-----------|--3----------|--------3--5--|-/7--5--7-----|----------7--|----------7--|
A|-----3--5--|------5---3--|--5--5--------|--------------|-------------|-------------|
E|-----------|-------------|--------------|--------------|-------------|-------------|

|--5---7----|--5---7----|--7---7----|-7-9-10-9---7--|-7-9-10-9---7--|-7-9-10-9---7--|
|-----------|-----------|-----------|---------------|---------------|---------------|
|-----------|-----------|-----------|---------------|---------------|---------------|
|-----------|-----------|-----------|---------------|---------------|---------------|

|-7-7-7-9-9-9-10-10-|--/12----9--|--10---9---7--|--9---7---5--|--7------|
|-------------------|------------|--------------|-------------|---------|
|-------------------|------------|--------------|-------------|---------|
|-------------------|------------|--------------|-------------|---------|

[Рифф после басового соло; здесь его повторить 4 раза,
а в куплете играется он же, но с пустым вторым тактом]:
  D5                 D5           C5 D5 C5 F5     D5
|-----------------|------------|---------------|---------|
|-----------------|------------|---------------|---------|
|-----------------|------------|---------------|---------|
|-----3-----3-----|------------|-----------3---|---------|
|-3-5---3-5---5---|------5-5---|--3--5--3------|--5------|
|-----------------|------------|---------------|---------|

D5                      C5 D5   C5 F5 D5      Dm(X)
 – Выкинь глупые мечты, вернись на землю!
D5                         C5 D5 C5  F5   D5  Dm(X)
   Вспомни, что ты говорил вчера при встрече.
D5                          C5 D5 C5 F5 D5    Dm(X)
   Вспомни, как ты подписал одну   бумагу.
D5                     C5 D5 C5 F5 D5
   Ну что, вспомнил?

  G5 F#5 F5 D#5
 – Я всё забыл,
      D5   C#5       C5      
   Верните солнечный свет!
 – Нет!

[Сыграть тот же рифф 2 раза]

D5                 C5 D5 C5 F5  D5   Dm(X)
 – Это декорация к другому  фильму.
D5                 C5 D5 C5 F5  D5   Dm(X)
   Это декорация к цветному фильму,
D5              C5    D5 C5 F5 D5    Dm(X)
   А ты актёр в чёрно-белой ленте.
D5                   C5 D5 C5 F5 D5
   Ну что, вспомнил?

  G5 F#5 F5 D#5
 – Я помню всё,
        D5   C#5       C5
   Но я вижу солнечный свет! 
Наверх