Аккорды Урфин Джюс - Ангел

Добавлено: @romashka
Дата добавления: 22 Марта 2022г.
Рейтинг:
0.0
Просмотров: 45
Транспонировать - +
[Интродукция]:
     Dm          Dsus2      Dsus4        Dm   Dsus2
E||--1--------|--0--------|--3--------|--1----0---|
B||--3--------|--3--------|--3--------|--3----3---|
G||--2--------|--2--------|--2--------|--2----2---|
D||--0--------|--0--------|--0--------|--0----0---|
A||-----------|-----------|-----------|-----------|
E||-----------|-----------|-----------|-----------|

     Bbmaj7      Dsus2/Bb    Bb6         A7(V)
E||--1--------|--0--------|--3--------|--5--------|
B||--3--------|--3--------|--3--------|--5--------|
G||--2--------|--2--------|--0--------|--6--------|
D||--3--------|--0--------|--3--------|--5--------|
A||--1--------|--1--------|--1--------|--7--------|
E||-----------|-----------|-----------|--5--------|

[Куплет]:
  D5             Dsus2       Dm          Dsus2
  Лёгких крыльев тихий звук  слышу над собой,
E||-----------|--0--------|--1--------|--0--------|
B||--3--------|--3--------|--3--------|--3--------|
G||--2--------|--2--------|--2--------|--2--------|
D||--0--------|--0--------|--0--------|--0--------|
A||-----------|-----------|-----------|-----------|
E||-----------|-----------|-----------|-----------|

  Abm/D (no5)    E/D         Ddim        E/D
  Что-то шепчет  в тишине    голос  неземной.
E||-----------|--0--------|--1--------|--0--------|
B||--0--------|--0--------|--0--------|--0--------|
G||--1--------|--1--------|--1--------|--1--------|
D||--0--------|--0--------|--0--------|--0--------|
A||-----------|-----------|-----------|-----------|
E||-----------|-----------|-----------|-----------|

  Gm            Bbdim         Dm          Dsus2
  Ангел, ангел, светлый ангел кружит надо мной,
E||--3--------|--0--------|--1--------|--0--------|
B||--3--------|--2--------|--3--------|--3--------|
G||--3--------|--0--------|--2--------|--2--------|
D||--5--------|--2--------|--0--------|--0--------|
A||--5--------|--1--------|-----------|-----------|
E||--3--------|-----------|-----------|-----------|

 Gm            Bbdim          Ddim       A7
 Ангел, ангел, светлый ангел, я готов  лететь за то-
E||--3--------|--0--------|--1--------|--0--------|
B||--3--------|--2--------|--0--------|--2--------|
G||--3--------|--0--------|--1--------|--0--------|
D||--5--------|--2--------|--0--------|--2--------|
A||--5--------|--1--------|-----------|--0--------|
E||--3--------|-----------|-----------|-----------|

     Gm
     бой!
E||--3--------|
B||--3--------|
G||--3--------|
D||--5--------|
A||--5--------|
E||--3--------| 

В табулатурах указаны аппликатуры аккордов,  так как они в этой песне в половине случаев нестандартные.
Можно сыграть, например, перебором бас-3-2-3-1-3-2-3,
заменяя его на бас-3-1-2-бас-3-1-2 в четвертом такте,
на бас-2-3-2-бас-2-3-2 для аккордов D5 и Abm/D (no5).
Оригинальная тональность — Fm (+3 полутона). Если Вы
хотите сыграть в ней, лучше использовать каподастр.
Наверх