Аккорды Урфин Джюс - Человек наподобие ветра

Добавлено: @romashka
Дата добавления: 05 Апреля 2022г.
Рейтинг:
0.0
Просмотров: 23
Транспонировать - +
Am7

   Am7
Капканы обманов, ловушки соблазнов
Все ставят и ставят напрасно, напрасно.
   Am7
Ты видишь насквозь уловки и петли,
Через них пролетая наподобие ветра.

       Dm7(V)   Dm7add13   Em(VII)
   Ты уносишься прочь, 
        Dm7(V)  Dm7add13   Em(VII)
   Как июльская ночь. 
       Dm7(V)   Dm7add13   Em(VII)
   Ты уносишься прочь, 
        Dm7(V)  Dm7add13   B(VII)
   Как июльская ночь. 

Em7(VII)

   Em7(VII)
На танце, на звуке, на лунном луче,
На чем угодно гарцуешь ты ловко. 
Em(VII)
Делается очередной поворот, 
C(VIII)                    Am(V)  F#  B(VII)
Рушится очередная уловка. 

Am7

Am7
Танцуя в пыли и в поту душной ночью, 
Чего же, чего же, чего же ты хочешь? 
Нелепый вопрос. Не дашь ты ответа, 
Через сон пролетая наподобие ветра. 

       Dm7(V)   Dm7add13   Em(VII)
   Ты уносишься прочь, 
        Dm7(V)  Dm7add13   Em(VII)
   Как июльская ночь. 
       Dm7(V)   Dm7add13   Em(VII)
   Ты уносишься прочь, 
        Dm7(V)  Dm7add13   B(VII)
   Как июльская ночь. 

Em7(VII)

    Em7(VII)
С такой же, как сам ты, на крае стены,
Всего сантиметр от гибели верной… 
   Em(VII)
Ты даже об этом не думал, наверно, 
C(VIII)                      Am(V)  F#  B(VII)
Ты, человек наподобие ветра!

Am7

   Am7
Капканы обманов, ловушки соблазнов
Все ставят и ставят напрасно, напрасно.
   Am7
Ты видишь насквозь уловки и петли,
Через них пролетая наподобие ветра,
      F
Через них пролетая наподобие ветра,
      Am7
Через них пролетая наподобие ветра.

F  G(III)  Am(V) 

Проще всего всё сыграть боем ↓ ↑↓ ↑↓↑. Чтобы было поинтереснее,
можно играть на аккорд Am7 табулатуру
                             4x
E||--0-0---0---0---0--0------||
B||--0-1---1---1---1--0------||
G||*-0-0---0---0---0--0--2--*||
D||*-2-2---2---2---2--2--2--*||
A||--0-0---0---0---0--0--0---||
E||--------------------------||

а на аккорд Em7(VII) — табулатуру
||--7-7-7-7-7-7-7-7-7-7-7-7-7-7-7-7--||--7--7--7--7-7--7--7--7-7--7--7--7-7--7--7--7--||
||--7-8-8-8-7-8-8-8-7-8-8-8-7-8-8-8--||--8-10-10-10-8-10-10-10-8-10-10-10-8-10-10-10--||
||*-7-7-7-7-7-7-7-7-7-7-7-7-7-7-7-7-*||*-7--7--7--7-7--7--7--7-7--7--7--7-7--7--7--7-*||
||*-9-9-9-9-9-9-9-9-9-9-9-9-9-9-9-9-*||*-9--9--9--9-9--9--9--9-9--9--9--9-9--9--9--9-*||
||--7-7-7-7-7-7-7-7-7-7-7-7-7-7-7-7--||--7--7--7--7-7--7--7--7-7--7--7--7-7--7--7--7--||
||-----------------------------------||-----------------------------------------------||
Наверх