Аккорды Урфин Джюс - Жизнь в стиле Heavy Metal

Добавлено: @romashka
Дата добавления: 27 Января 2022г.
Рейтинг:
0.0
Просмотров: 39
Транспонировать - +
Bm       A               G        Em                
E||------------------------|-------------------------|
B||------------------------|-------------------------|
G||------------------------|-------------------------|
D||------------------------|-------------------------|
A||-----9----------7-------|-----5----------2--1-----|
E||--7-----7--5-------5----|--3-----3--0-------------|

   Bm       A        G        Em
Когда я с надёжной дороги свернул,
   Bm    A          G      Em
Одни огорчились, другие смеялись;
   Bm        A        G          Em
Сказал я: «Ведёт меня призрачный свет»,
   Bm    A      G Em
Но все     сомневались,

   Bm      C#      D     D  C# C# Bm   A  G  Em
   Есть ли жизнь в стиле heavy metal,
   Bm      C#      D     F#m E E D    C#  Bm  A
   Есть ли жизнь в стиле heavy metal?

    Bm        A      G           Em
И в сумрачной чаще я путь свой искал,
    Bm         A      G          Em
Блуждал в темноте и терял в себя веру,
   Bm          A            G         Em
Но свет всё мерцал, голос странный звучал
   Bm    A        G Em
И звал     меня к цели —

   Bm     C#      D     D  C# C# Bm   A  G  Em
   К этой жизни в стиле heavy metal,
   Bm     C#      D     F#m E E D    C#  Bm  A
   К этой жизни в стиле heavy metal.

   Bm           Bm/Bb  Bm         Bm/Ab   G        
E||----------------------------------------------|
B||----------------------------------------------|
G||----------------------------------------------|
D||----------------------------------------------|
A||-----5-------------------5----------5---------|
E||--7-----7----6------7-------5--4-------3------|

      Bm     Bm/Bb        Bm Bm/Ab G
      Иди на свет, иди,
      Bm         Bm/Bb    Bm Bm/Ab G
      Ищи, в чём цель пути;
      Bm         Bm/Bb    Bm Bm/Ab G
      А цель в самом пути
      Bm          Bm/Bb   Bm Bm/Ab G Bm
      К источнику света.

   Bm      A     G        Em
И снова и снова иду я на свет,
  Bm       A        G          Em
А он точно так же далёк, как и прежде.
   Bm      A          G          Em
Но это мой путь, и других просто нет,
  Bm  A      G Em
И я     не жалею.

   Bm  C#      D     D  C# C# Bm   A  G  Em
   Это жизнь в стиле heavy metal,
   Bm  C#      D     F#m E E D    C#  Bm  A
   Это жизнь в стиле heavy metal. 

Bm/Bb     Bm/Ab       
E||----X----|----X----|
B||----2----|----2----|
G||----4----|----4----|
D||----4----|----4----|
A||----1----|----X----|
E||----X----|----4----|
Наверх