Аккорды Урфин Джюс - Лишняя деталь

Добавлено: @romashka
Дата добавления: 05 Апреля 2022г.
Рейтинг:
0.0
Просмотров: 23
Транспонировать - +
[Перебор для куплета 1]:
    E                                   B       E         B       E
E||-4---5---7---9---|-7---5---4-------|-2-----7-4-------|-2-----7-4-------|
B||---0---0---0---0-|---0---0---0---0-|---4-------0---0-|---4-------0---0-|
G||-----------------|-------------1---|-----4-------1---|-----4-------1---|
D||-----------------|-----------------|-----------------|-----------------|
A||-----------------|-----------------|-2---------------|-2---------------|
E||-0---------------|---------0-------|---------0-------|---------0-------|

  E                                   B       A         E
|-4---5---7---9---|-7---4---0-------|-----------------|----------|
|---0---0---0---0-|---0---0---0---0-|-4-----5-2-----0-|-0--------|
|-----------------|-------------1---|---4-------2-----|-1--------|
|-----------------|-----------------|-----4-------2---|-2--------|
|-----------------|-----------------|-2-------0-------|-2--------|
|-0---------------|---------0-------|-----------------|-0--------|

  F#7     B         A#7     A         A       B         G#7     G(III)    E
|-------------4---|-------------2---|-----------------|-----------------|-0----|
|-5-----5-4-----4-|-3-----3-2-----2-|-2-----2---------|-----------------|-0----|
|---3-------4-----|---1-------2-----|---2-----4-----4-|-5-----5-4-----4-|-1----|
|-----2-----------|-----3-----------|-----2-----4-----|---4-------5-----|-2----|
|---------2-------|-1-------0-------|-0-------2---2---|-----6-------5---|-2----|
|-2---------------|-----------------|-----------------|-4-------3-------|-0----|

  E                                   B       A         B7(II)
|-4---5---7---9---|-7---5---4-------|-2-----4-0-------|----------|
|---0---0---0---0-|---0---0---0---0-|---4-------2---2-|-4--------|
|-----------------|-------------1---|-----4-------2---|-2--------|
|-----------------|-----------------|-----------------|-4--------|
|-----------------|-----------------|-2-------0-------|-2--------|
|-0---------------|---------0-------|-----------------|----------|

E
В тесном коконе лежу,
B        E    B        E 
Датчик в нос, трубка в рот. 
E
Через трубки ем и пью 
B   A  E 
И наоборот… 

F#7  B     A#7    A
На экранах всё мерцает, 
A     B     G#7  G(III) E
Всё живет и дышит без меня. 
E
Трудно осознать, зачем
B     A     B7(II)
Нужен здесь я?

[Проигрыш]:
| Em7  | Em7  | Em7  | Em7  | Em7  | Em7  | Em7  | Em7  |

      Em7
   По внутренней связи разносится голос:
 — Слушаю вас, командир!
 — Это центральный полетный компьютер?
 — Да, это я, командир.

[Проигрыш]:
| F#m7 | F#m7 | F#m7 | F#m7 | F#m7 | F#m7 | F#m7 | F#m7 |

     Em7
 — Могу ли я взять на себя управленье?
 — Это запрещено!
 — В чем же причина скажи мне, машина?
 — Ты подвержен ошибкам, ты слаб.

[Гитарное соло]:
| F#m7 | F#m7 | F#m7 | F#m7 | F#m7 | F#m7 | F#m7 | F#m7 |
| Gm7  | Gm7  | Gm7  | Gm7  | Gm7  | Gm7  | Gm7  | Gm7  |
| A#m7 | A#m7 | Gm7  | Gm7  | A#m7 | A#m7 | B    |      |
[Клавишное соло]:
| Em7  | Em7  | Em7  | Em7  | Em7  | Em7  | Em7  | Em7  |
| F#m7 | F#m7 | F#m7 | F#m7 | F#m7 | F#m7 | F#m7 | F#m7 |
[Гитарное соло]:
| Em7  | Em7  | Em7  | Em7  | Em7  | Em7  | Em7  | Em7  |
| F#m7 | F#m7 | F#m7 | F#m7 | Em7  | Em7  | Em7  | Em7  |
| F#m7 | F#m7 | F#m7 | F#m7 | Gm7  |  F#m7 Em7   | Em7  | Em7  |

     Em7
 — Я не согласен с таким положеньем…
 — Желаешь играть ты главную роль?
 — Я только аппендикс, ненужный придаток…
 — …к системе над которой потерял ты контроль!

[Гитарное соло]:
| F#m7 | F#m7 | F#m7 | F#m7 | F#m7 | F#m7 | F#m7 | F#m7 |
| Gm7  | Gm7  | Gm7  | Gm7  | Gm7  | Gm7  | Gm7  | Gm7  |
| A#m7 | A#m7 | Gm7  | Gm7  | A#m7 | A#m7 | B    |      |

E
Трудно осознать, зачем
B     A     B7(II)
Нужен здесь я? 
Наверх