Аккорды Урфин Джюс - 451 F

Добавлено: @romashka
Дата добавления: 15 Апреля 2022г.
Рейтинг:
0.0
Просмотров: 28
Транспонировать - +
[Основной рифф; играется в первом, втором и последнем куплетах на Am7]:
     Am7
E||---------------------------||
B||---------------------------||
G||*-------------------------*||
D||*-2--2--2--2---2--2-2-----*||
A||--0--0--3--0---3--0-3------||
E||----------------------3-4--||

[Рифф припева]:
    D7(V)              D#7        3x D7(V)                  D7(V) C(III)
||------5---------|----6-6--6-6---||-----5---------|-----------------|
||--8-7------7----|----8-8--8-8---||-8-7------7----|-----------------|
||*-5-----5-------|-5--6-6--6-6--*||-5-----5-------|-5--X-X-X-X-5-5--|
||*-7-----------7-|----8-8--8-8--*||-7-----------7-|----X-X-X-X-7-5--|
||--5-------------|----6-6--6-6---||-5-------------|----X-X-X-X-5-3--|
||----------------|---------------||---------------|-----------------|

  Am7
Пока ты куда неизвестно ходил,
  Am7
Потушен, погашен твой юношеский пыл
  F#m7
Пожарной командой,
  Am7
Пожарной командой.
      Am7
Ты не знаешь ли, кто эти люди
  Am7
В касках и в масках,
  F#m7
С лицами честных героев,
       Am7
Нечувствительных к боли?

      D7(V)                   D#7  D7(V)       D#7
   На всякий пожарный случай,
      D7(V)                   D#7  D7(V)       D7(V) C(III)
   На всякий пожарный случай.

  Am7
Отвечу я сам за тебя на вопрос,
   Am7
Когда бы и как бы тебе ни пришлось
    F#m7
С пути оступиться,
    Am7
С пути оступиться,
    Am7
Ты увидишь сам, что эти люди
Am7
Курс твой исправят
   F#m7
И смело растащат баграми
 Am7
Твой загоревшийся череп.

      D7(V)                   D#7  D7(V)       D#7
   На всякий пожарный случай,
      D7(V)                   D#7  D7(V)       D#7
   На всякий пожарный случай.

   E7
Не делай того, что не делал никто,
Кто может представить последствия,
E7             G7(III)
Если нарушится равновесие
C(III)          F
Между горящим тобой
G7(III)        C(III)
И окружающей холодной средой.
C(III)          F
Между горящим тобой
G7(III)        C(III)
И окружающей холодной средой.

Am7               Asus2
Пожарники созданы для того,
A7sus2             Asus4     Dsus2 C
Чтобы следить за порядком,
  Am7               Am7
А значит, и за мной,
  B7(II)            B7(II)
А значит, и за мной,
  C(III)            C(III)
А значит, и за мной!
  D7(V)       D7(V) C(III)
А-а!

Am7
Думаешь ли ты, что это
     Am7
Возмутительная оплошность?
F#m7
Это просто…
                   Am7
Предосторожность! 

На акустике эффектно звучит, если играть 
основной рифф как подыгрыш в аккорде Am7:
      Am7
E||---0--0--0--0---0--0-0------||
B||---1--1--1--1---1--1-1------||
G||*--0--0--0--0---0--0-0-----*||
D||*--2--2--2--2---2--2-2-----*||
A||---0--0--3--0---3--0-3------||
E||-----------------------3-4--||
Наверх