Аккорды Урфин Джюс - Контакт

Добавлено: @romashka
Дата добавления: 05 Мая 2022г.
Рейтинг:
0.0
Просмотров: 42
Транспонировать - +
[Интродукция, табулатуру см. ниже]:
| F#m | F#m | F#m | F#m | F#m | F#m | F#m | F#m |
| F#m | F#m | F#m | F#m | D   | E   | F#m | F#m |
| F#m | F#m | F#m | F#m | D   | E   | F#m | F#m |

F#m
Ты взял гитару в робкой попытке установить контакт;
D                   E                F#m                G
Что ты нам скажешь: ложь или правду, вымысел или факт?
F#m
Музыка — космос, в котором паришь ты, звуков чудесный край.
D                      E               F#m
С тем, кто остался в цепях тяготенья, связи не потеряй.

   G       A      D      Dm
   Я уже устал молчать,
   Em        A   C#     F#m
   Мне необходим    (контакт.)

F#m
Всё ли, что нужно тебя посылавшим, ты разузнать сумел?
D                  E            F#m
Были ли тайны, в которые первым ты заглянуть посмел?
F#m
Понял ли чуждых цивилизаций странных сигналов суть?
D                E                 F#m
Смог ли решиться бросить им вызов, смог ли собой рискнуть?

   G       A      D    Dm
   Я уже устал молчать,
   Em        A   F#   (Bm)
   Мне необходим    контакт.

[Соло, табулатуру см. ниже]:
| Bm | Bm | Em | Em | A7 | A7 | D  | F# |
| Bm | Bm | G  | G  | Em | Em | F# G G# A | A# B C C# |
| F# G G# A A# B C C# |
[После этого повторить последнюю часть интродукции]

F#m
Если безумцы выстроят стену там, где у сцены край,
D            E            F#m
Силою звука, магией слова стену скорей сломай!
F#m
Зал переполнен, и времени мало, медленно гаснет свет,
D                 E           F#m
Ключ отыщи к равнодушию зала, каждому дай ответ.

   G        A    D     Dm
   Мы уже устали ждать,
   Em        A   F#   (Bm)
   Нам необходим    контакт.

[Кода — вариации на тему соло]


/*********        ТАБУЛАТУРЫ        *********/

[Интродукция]:

     F#m                                                                                             
E||-------------------------|----------------------|-------------------------|----------------------|
B||-------------------------|----------------------|-------------------------|----------------------|
G||-------------------------|----------------------|-------------------------|----------------------|
D||-------4----------2------|-------4--------------|-------4----------2------|-------4--------------|
A||--------------------4-2--|----------------------|--------------------4-2--|----------------------|
E||--2-------2----2---------|--2-------2-----------|--2-------2----2---------|--2-------2-----------|

|-------------------------|-----------------------|-------------------------|--------------------------|
|-------------------------|-----------------------|-------------------------|--------------------------|
|-------------------------|-----------------------|-------------------------|--------------------------|
|-------4----------2------|-------4---------------|-------4----------2------|--------------------2--2--|
|--------------------4-2--|------------------5----|--------------------4-2--|-----3--3--4--4--4--------|
|--2-------2----2---------|--2-------2----2--3----|--2-------2----2---------|--2-----------------------|

   F#m                                                                                               
|---------------------------|--------------------------|------------------------|-------------------|
|---------------------------|--------------------------|------------------------|-------------------|
|---------2-----------------|--------2-----------------|--------2---------------|-------------------|
|--2---4-----4--4--4--4--4--|--2--4-----4--4--4--4--4--|--2--4-----4----2-------|-------------------|
|---------------------------|--------------------------|---------------------4--|--L----------------|
|---------------------------|--------------------------|------------------------|-------------------|

   D                          E                          F#m                                         
|--------------------------|--------------------------|-------------------------|-------------------|
|--------------------------|--------------------------|-------------------------|-------------------|
|--------2-----------------|--------2-----------------|---------2---------------|-------------------|
|--2--4-----4--4--4--4--4--|--2--4-----4--4--4--4--4--|--2---4-----4----2----4--|--L----------------|
|--------------------------|--------------------------|-------------------------|-------------------|
|--------------------------|--------------------------|-------------------------|-------------------|

   F#m                                                                                               
|---------5-----------------|--------5-----------------|--------5---------------|-------------------|
|--5---7-----7--7--7--7--7--|--5--7-----7--7--7--7--7--|--5--7-----7----5-------|-------------------|
|---------------------------|--------------------------|---------------------6--|--L----------------|
|---------------------------|--------------------------|------------------------|-------------------|
|---------------------------|--------------------------|------------------------|-------------------|
|---------------------------|--------------------------|------------------------|-------------------|

   D                          E                          F#m                                           
|--------5-----------------|--------5-----------------|---------5---------------|-------------------|
|--5--7-----7--7--7--7--7--|--5--7-----7--7--7--7--7--|--5---7-----7----5----7--|--L----------------|
|--------------------------|--------------------------|-------------------------|-------------------|
|--------------------------|--------------------------|-------------------------|-------------------|
|--------------------------|--------------------------|-------------------------|-------------------|
|--------------------------|--------------------------|-------------------------|-------------------|

[Соло]:

   Bm                                                      Em                                                   
|--10--------9--------7-----|-----9--------10-----9-----|--10--------9--------7-----|-----9--------10-----9-----|
|------7--7-----7--7-----7--|--7-----7--7------7-----7--|------8--8-----8--8-----8--|--8-----8--8------8-----8--|
|---------------------------|---------------------------|---------------------------|---------------------------|
|---------------------------|---------------------------|---------------------------|---------------------------|
|---------------------------|---------------------------|---------------------------|---------------------------|
|---------------------------|---------------------------|---------------------------|---------------------------|

   A7                                                      D                           F#                    
|--10--------9--------7-----|-----9--------10-----9-----|--10--------6--7b-7--6-----|---------------------------|
|------8--8-----8--8-----8--|--8-----8--8------8-----8--|------7--8--------------8--|--7--8--7--8--7------------|
|---------------------------|---------------------------|---------------------------|---------------------------|
|---------------------------|---------------------------|---------------------------|---------------------------|
|---------------------------|---------------------------|---------------------------|---------------------------|
|---------------------------|---------------------------|---------------------------|---------------------------|

   Bm                                                      G                                                   
|--10--------9--------7-----|-----9--------10-----9-----|--10-----9-----7-----9-----|--10-----9-----7-----9-----|
|------7--7-----7--7-----7--|--7-----7--7------7-----7--|-------8-----8-----8-----8-|-------8-----8-----8-------|
|---------------------------|---------------------------|---------------------------|---------------------------|
|---------------------------|---------------------------|---------------------------|---------------------------|
|---------------------------|---------------------------|---------------------------|---------------------------|
|---------------------------|---------------------------|---------------------------|---------------------------|

   Em                                                        F#    G     G#    A        A#    B     C     C#     
|--10b---10--9--10--9--10--9--|---------------------------|--------------------------|--------------------------|
|-----------------------------|--11--11--12--11--8--7-----|--------------------------|--------0--0--1--1--2--2--|
|-----------------------------|---------------------------|--------0--0--1--1--2--2--|--3--3--------------------|
|-----------------------------|---------------------------|--4--4--------------------|--------------------------|
|-----------------------------|---------------------------|--------------------------|--------------------------|
|-----------------------------|---------------------------|--------------------------|--------------------------|

   F# G  G# A  A# B  C  C#   
|--------------------------|   После
|-----------------0--1--2--|   этого
|-----0--1--2--3-----------|   повторить
|--4-----------------------|   последнюю
|--------------------------|   часть
|--------------------------|   интродукции 

Слово/аккорд в скобках накладывается на следующий куплет/соло.
Наверх