Аккорды Земфира - Таблетки

Добавлено: @romashka
Дата добавления: 03 Марта 2021г.
Рейтинг:
0.0
Просмотров: 88
Транспонировать - +
6|---2-----2-----7-8--5---7---8--13---7----------------2--2---7-8-|
5|----------------------------------------------------------------|
4|----------------------------------------------------------------|

6|-5------7--8-------13-----9-8-----------------------------------|
5|----------------------------------------------------------------|
4|-------------------------------0--0----0----0-------------------|
3|----------------------------------------------------------------|
2|----------------------------------------------------------------|
1|--------------------------------------7----8----7---------------|
   Am
Власть моя дергается
   Dm
Таблетки кончаются
   
Демоны молятся
   E7
Нефть качается
   Am
Власть моя дергается
   Dm
Таблетки кончаются
   Fmaj
Демоны молятся
     E
Нефть качается

   Gm
Провода горят, это не лечится
    Gm9
Две подряд болезни за месяц
      Fm7   
За мной следят в замочную скважину
     A7
Ты следишь
Забери ключи от старого порша
Давай, кричи громче и горже
Сорвись с моста, отдайся спасателям
И живи

Власть моя дергается
Таблетки кончаются
Демоны молятся
Нефть качается
Власть моя дергается
Таблетки кончаются
Демоны молятся
Нефть качается

Голова болит от лишнего шума
Везде звонки, кто их придумал
Меня хотят вовлечь во все тяжкие
Мне нельзя
[Припев]
Глаз мой дёргается
Таблетки кончаются
Демоны молятся
Нефть качается
Глаз мой дёргается
Таблетки кончаются
Демоны молятся
Нефть качается

[Куплет 2]
Голова болит от лишнего шума
Везде звонки, кто их придумал
Меня хотят вовлечь во все тяжкие
Мне нельзя
Ты поймёшь потом что это было
Мою войну с уебищным миром
Мою любовь к тебе одинокую
Се ля ви

[Припев]
Глаз мой дёргается
Таблетки кончаются
Демоны молятся
Нефть качается
Дёргается
Таблетки кончаются
Демоны молятся
Нефть качается

[куплет 3]
   Em
Пустота пустот прямо под нами
   Em9
Ослепший кто-то прячется в яме
  Dm7
Ему помочь нужно и хочется
   Em
Только как?
Голоса внутри как сорвались 
с цепи на три прыгаем вниз, 
держи меня крепко за руку
Я боюсь


[Припев]
Глаз мой дёргается
Таблетки кончаются
Демоны молятся
Нефть качается
Дёргается
Таблетки кончаются
Демоны молятся
Нефть качается...

В оригинале фактически повторяется мелодия вступления большую часть песни, но на акустике не звучит.
Наверх