Аккорды Земфира - Webgirl

Добавлено: @romashka
Дата добавления: 10 Декабря 2021г.
Рейтинг:
0.0
Просмотров: 52
Транспонировать - +
Вступление:
Am  Dm  E } x4


 Am        Dm  E     Am
Девочка, живущая в сети,
  F    G    C          F
Нашедшая любовь между строк,
     Esus4  E    Am
Между небом и землёй.
                (Пальцами)
           Dm     E  Am
         пытаясь угадать,
   F     G  C          F
Надеясь угадать до конца,
      Esus4  E
До конца



 Am D     Am  D           |
Лай-э-хэ, лай-э-хэ,       |
 Dm       G        C   E  | x2
Лай-ла-ла-э-хэ-ла-лай     |



 Am        Dm  E     Am
Девочка, живущая в сети,
   F  G     C          F
Живущая за всех, до конца,
     Esus4   E  Am
На последнем этаже.
               (Клавиши,)
           Dm  E    Am
        хранящие тепло,
  F  G     C       F
Таящие вопрос никому,
    Esus4  E    
Никому.

 F
Может быть, на том конце встретив
  Dm
В чьём-нибудь чужом лице третьем
 G
Что-нибудь, отдашь сердце,
 E
Кто-нибудь отдаст сердце и,
 F
Знаешь ли, бывает же чудо,
 Dm
Знаешь ли, встречают же люди,
 G
Может быть, и ты тоже.
 E
Может быть...

E|--------------12 ͡ 10--10------12--|
B|----------12---------------12------|
G|-----------------------------------|
D|-----------------------------------|
A|-----------------------------------|
E|-----------------------------------|


 Am        Dm  E     Am
Девочка, живущая в сети,
   F   G    C           F
Забывшая любовь между строк,
     Esus4  E    Am
Между небом и землёй.
                (Девочка)
           Dm   E    Am
         уставшие глаза,
    F   G     C           F
Догнавшие рассвет, только ей,
      Esus4  E    
Только ей.


 Am D     Am  D
Лай-э-хэ, лай-э-хэ,
 Dm       G        C   E
Лай-ла-ла-э-хэ-ла-лай     

 Am D     Am  D
Лай-э-хэ, лай-э-хэ,
 Dm       G        C 
Лай-ла-ла-э-хэ-ла-лай     
E|------------------------------------------|
B|-------------------3--5--6--8--6--13--12--|
G|-------------------4--5--7--9--7--14--13--|
D|------------------------------------------|
A|------------------------------------------|
E|------------------------------------------|


 Am        Dm  E     Am
Девочка, живущая в сети,
  Dm  E     Am
Живущая в сети.
  Dm  E     Am
---------------
  Dm  E     Am
Живущая в сети.



E|------------------|------------------|
B|--1-1-1-----1-1-0-|-1-1-1-----1-1-0--|
G|--2-2-2-2---2---0-|-2-2-2-2---2---0--|
D|--2-2-2-2---2-2-0-|-3-3-3-3---3-3-0--|
A|--0-0-0-0---0-0-0-|-0-0-0-0---0-0-0--|
E|------------------|------------------|
    п v п v   v п v   п v п v   v п v *

* п = downstroke; v = upstroke
Наверх