Аккорды Земфира - Пальто

Добавлено: @romashka
Дата добавления: 18 Февраля 2022г.
Рейтинг:
0.0
Просмотров: 40
Транспонировать - +
[Припев]:

    C#      F         Bbm   B/G#   F#      Bbm     D#m  G#
    ...В красивом пальто по набережной и встречу тебя
E|-------------------------------------------------------------------|
B|--6---6---1---1---2---2---4---4---2---2---2---2---7---7---4---4----|
G|--6---6---2---2---3---3---4---4---3---3---3---3---8---8---5---5----|
D|----6---6---3---3---3---3---4---4---4---4---3---3---8---8---6---6--|
A|-------------------------------------------------------------------|
E|-------------------------------------------------------------------|


           C#     F        Bbm     B/G#      F#      Bbm      D#m  G#
И в тот же миг закончится дождь, закончится грипп, и кто-то умрёт
E|-------------------------------------------------------------------|
B|--6---6---1---1---2---2---4---4---2---2---2---2---7---7---4---4----|
G|--6---6---2---2---3---3---4---4---3---3---3---3---8---8---5---5----|
D|----6---6---3---3---3---3---4---4---4---4---3---3---8---8---6---6--|
A|-------------------------------------------------------------------|
E|-------------------------------------------------------------------|


       C#      F         Bbm   B/G#   F#      Bbm     D#m  G#
И я пойду в красивом пальто по набережной и встречу тебя.

           C#     F        Bbm     B/G#      F#      Bbm      D#m
И в тот же миг закончится дождь, закончится грипп, и кто-то умрёт.



[Куплет 1]:

D#                              Bbm                 G#  
  Сегодня лучший день, чтобы сходить к реке. Мило рука в руке...
D#                         Bbm                    G#
  Подняться на мост И прочитать стихи, даже если они плохи.
        D#           Bbm                G#    
  Я улыбнусь... очаровательно, Ты же мечтательно
                   D#              Bbm
  Посмотришь мне вслед... Как я ухожу...
          G#         F#
  ...я ухожу... я ухожу...
E|                     ------------------------------|
B|                     ----------------------2----4--|
G|                     ------3-------5---------------|
D|                     ----4-------4-------4---------|
A|                     --4-------4-------4-----------|
E|                     ------------------------------|



[Припев]:

C#      F         Bbm   B/G#   F#      Bbm     D#m  G#
...В красивом пальто по набережной и встречу тебя
              C#     F        Bbm     B/G#      F#      Bbm      D#m  
   И в тот же миг закончится дождь, закончится грипп, и кто-то умрёт.



[Куплет 2]:

D#
  Сегодня лучший день,
          Bbm             G#  
  Чтобы забыть тебя, разлюбить тебя...
D#
  Я буду как тень
             Bbm                G#  
  Читать все вывески, терять свои виски
             D#
  И думать о нас...
          Bbm                    G# 
  Но невозможно, нет. Хочешь — готовь обед,
         D#
  Но я уйду...
      Bbm     G#      F#
  Я уйду, я уйду, я уйду...


[Припев]:

В красивом пальто по набережной и встречу тебя.
И в тот же миг закончится дождь, закончится грипп, и кто-то умрёт.
И я пойду в красивом пальто по набережной и встречу тебя.
И в тот же миг закончится дождь, закончится грипп, и все мы умрём...
Наверх