Аккорды Земфира - П. М. М. Л.

Добавлено: @romashka
Дата добавления: 07 Марта 2022г.
Рейтинг:
0.0
Просмотров: 58
Транспонировать - +
[Вступление]:

   Am     G      Am     G     
E|-----0----8-7------0----8-7-
B|-1-3----3------1-3----3-----

   C      G     
E|-----0----8-7-
B|-1-3----3-----

E|---5---5-----5-----------
B|-8---6---6-5---5---5-3-1-
G|-----------------7-------
D|-------------------------
A|-8-----------------------
E|-------------------------

   Am     G      Am     G     
E|-----0----8-7------0----8-7-
B|-1-3----3------1-3----3-----

   C      G     
E|-----0----8-7-
B|-1-3----3-----

E|-0-1---1-----1-----1-----
B|-1---3---3-1---1-0---0-1-
G|-2-----------------------
D|-3-----------------------
A|-------------------------
E|-------------------------

Am       G                   Am     
Море. Обнимет, закопает в пески
   G                Dm
Закинут рыболовы лески
    Em                  Dm
Поймают в сети наши души
    Em       E   
Прости меня моя любовь

Am         G                        Am     
Поздно, о чем-то думать слишком поздно
   G                  Dm
Тебе, я чую, нужен воздух
   Em                      Dm
Лежим в такой огромной луже
     E
Прости меня, моя любовь


Соло: как вступление


Am        G                 Am     
Джинсы воды набрали и прилипли 
     G                     Dm
Мне кажется, мы крепко влипли
     Em                    Dm
Мне кажется, потухло солнце
    Em        E
Прости меня, моя любовь

Am         G                   Am     
Тихо, не слышно ни часов, ни чаек
    G                  Dm
Послушно сердце выключаем 
  Em                            Dm
И ты в песке, как будто в бронзе
     E              
Прости меня, моя любовь


[Концовка]: как вступление 
Наверх