Аккорды Земфира - Так и оставим

Добавлено: @romashka
Дата добавления: 12 Мая 2022г.
Рейтинг:
0.0
Просмотров: 27
Транспонировать - +
[Intro]
   Am Ammaj7 Am7 Ammaj7  *можно играть на 5-ом ладу от Am(V)
E|--0----0----0----0--|
B|--1----1----1----1--|
G|--2----1----0----1--|
D|--2----2----2----2--|
A|--0----0----0----0--|
E|--------------------|



[Verse 1]
  Am           Ammaj7
Плачь - я не откликнусь,
           Am7           D
В этой квартире холодно слишком.
        Dm7         Dm
В эти минуты падает небо,
         E7
Так и оставим.

 Am          Ammaj7
Боль тем и полезна,
          Am7             D
Что заставляет двигаться дальше.
           Dm7               Dm
Мне б твои мысли, я б в свои песни,
             E7
Просто представим.



[Chorus]
   Fm  Bb  C
   Fm  G   C 
   Fm  Bb  C
   Fm  Gsus4  G
E|--1----3----3--|
B|--1----3----3--|
G|--1----5----4--|
D|--3----5----5--|
A|--3----5----5--|
E|--1----3----3--|



[Verse 2]
 Am            Ammaj7
Пусть ты не случился,
       Am7         D
Я не жалею, я привыкаю.
       Dm7               Dm
Рыбы и змеи - сколько их будет
          E7
В этом романе?

  Am         Ammaj7
Грусть и сигареты -
          Am7               D
Что может лучше, лучше, чем это -
       Dm7             Dm
Я на диване, небо в кармане
        E7
Так и оставим.



[Chorus]
   Fm  Bb  C
   Fm  G   C 
   Fm  Bb  C
   Fm  Gsus4  G
   Cmaj7



[Outro]
Cm Csus2(III) Ab
Gm Gm/E Em7 Em6

Cm Cm11 Ab        |
Gm Gm/E Em7 Em6   | x5

    Cm     Cm7    Cm(VIII)     Gm
E|--3-3-3--3-3-3--8-8-8-8-8-8--3--|
B|--4-4-4--4-4-4--8-8-8-8-8-8--3--|
G|--5-5-5--3-3-3--8-8-8-8-8-8--3--|
D|--5-5-5--5-5-5---------------5--|
A|--3-3-3----------------------5--|
E|-----------------------------3--| 
Наверх