Аккорды ЖЩ - Земля - место, где мы умрём

Добавлено: @romashka
Дата добавления: 02 Января 2021г.
Рейтинг:
0.0
Просмотров: 49
Транспонировать - +
Рифак №1:
4x
e|-----------------|-----------------|-----------------|-----------------|
B|-----------------|-----------------|-----------------|-----------------|
G|----------4------|----------4------|----------2------|----------0------|
D|------4-----4---4|------4-----4---2|------2-----2---0|------4-----4---0|
A|-2------2-----2--|-----------------|-----------------|-----------------|
E|-----------------|-3------3-----3--|-0------0-----0--|-2------2-----2--|

Где-то ждёт убитая горем мать.
Где-то копы ищут виновных лиц.
То, что так получилось - ни дать, ни взять.
Либо стой как солдат, либо падай ниц.
Наши спины прикроет последний герой -
Он, отдав свою жизнь, заберёт нашу честь.
Всё плохое случается не с тобой,
Все несчастные случаи - просто текст.

Соло №1:
2x
e|-----------------|-----------------|-----------------|-----------------|
B|----------3-----3|-5---3---2---0---|-----------------|-----------------|
G|------------4----|-----------------|----------2------|----------0------|
D|------4-------4--|-----------------|------2-----2---0|------4-----4---0|
A|-2------2--------|-----------------|-----------------|-----------------|
E|-----------------|-----------------|-0------0-----0--|-2------2-----2--|

Просто так твоё имя в конце статьи,
Просто пресная сводка, холодный пот.
Просто так мы услышали от судьи
Адрес твой, телефон и рожденья год.
В показаниях путаясь плакал друг,
Но не твой - я его вижу в первый раз.
Если очень прислушаться, можно звук
Стука сердца услышать, да хоть сейчас.

Соло №2:
2x
e|----------------|----------------|----------------|----------------|
B|-0-0-0-0-2-2-3-3|-0-0-0-0-2-2-3-3|-0-0-0-0-2-2-3-3|-5-5-3-3-2-2-2-2|
G|----------------|----------------|----------------|----------------|
D|----------------|----------------|----------------|----------------|
A|----------------|----------------|----------------|----------------|
E|----------------|----------------|----------------|----------------|

Рифак №2:
e|--------------------|--------------------|--------------------|--------------------|
B|-0----0-0-2----3----|----------3----2----|----------3----2----|-5----5-5-3----2----|
G|--------------------|-0----0-0-----------|--------------------|--------------------|
D|--------------------|--------------------|-2----2-2-----------|--------------------|
A|--------------------|--------------------|--------------------|--------------------|
E|--------------------|--------------------|--------------------|--------------------|

Абонент недоступен - перезвонит,
29 нечитаных смс.
У кого-то, наверное, так болит.
Ну а мне хорошо, ну ведь ты же здесь.
Не твои больше раны не заживут.
Не снимали с тебя санитары бинты.
В морге в гроб положили какой-то труп.
Так похоже - но это совсем не ты.

Рифак №3(или соло №2):
e|----------------|----------------|----------------|----------------|
B|-0-0-0-0-2-2-3-3|-0-0-0-0-2-2-3-3|-0-0-0-0-2-2-3-3|-5-5-3-3-2-2-2-2|
G|----------------|----------------|----------------|----------------|
D|----------------|----------------|----------------|----------------|
A|----------------|----------------|----------------|----------------|
E|----------------|----------------|----------------|----------------|

И родители плакали не твои,
И священник весь в чёрном отпел других.
Просто так твоё имя в конце статьи.
Злая шутка, ошибка, случайный штрих.
Просто это какой-то нелепый бред,
Ведь Земля - это место, где мы умрём.
Ну кому придёт в голову, в 20 лет?
Я не верю, скажите, что это сон.

B5              B5/G          E5
   Где-то ждёт убитая горем мать.
            F#5             B5
Где-то копы ищут виновных лиц.
                B5/G                    E5
То, что так получилось - ни дать, ни взять.
                 F#5               B5
Либо стой как солдат, либо падай ниц.
              B5/G             E5
Наши души прикроет последний герой -
               F#5                 B5
Он, отдав свою жизнь, заберёт нашу честь.
              B5/G          E5
Всё плохое случается не с тобой,
                F#5
Все несчастные случаи - просто текст.

Рифак №1:
e|-----------------|-----------------|-----------------|-----------------|
B|-----------------|-----------------|-----------------|-----------------|
G|----------4------|----------4------|----------2------|----------0------|
D|------4-----4---4|------4-----4---2|------2-----2---0|------4-----4---0|
A|-2------2-----2--|-----------------|-----------------|-----------------|
E|-----------------|-3------3-----3--|-0------0-----0--|-2------2-----2--|

Все несчастные случаи - просто текст. (4x)

Концовка:
E|-----------|-----------|-----------|-----------|---
B|-----------|-----------|-----------|-----------|---
G|------4----|-----4-----|-----2-----|-----------|---
D|-----------|---4-------|---2-------|------4----|---
A|-2---------|-----------|-----------|-----------|-2-
E|-----------|-3---------|-0---------|-2---------|---
Наверх