Аккорды Green Day - St.Jimmy

Добавлено: @romashka
Дата добавления: 26 Апреля 2017г.
Рейтинг:
0.0
Просмотров: 100
Транспонировать - +
Intro: 
Second guitar is palm muting the open A string. 
   A5       D5  A5  x4    D5     E5  D5  
e|-------------------------------------| 
B|-------------------------------------| 
G|----------7------------7------9--7---| 
D|-7--------7--7---------7------9--7---| 
A|-7--------5--7---------5------7--5---| 
E|-5-----------5-----------------------| 
  
Verse: 
   A5   D5   E5   A5  x6 
e|--------------------| 
B|--------------------| 
G|------7----9--------| 
D|-7----7----9----7---| 
A|-7----5----7----7---| 
E|-5--------------5---| 
 
Chorus: 
   D5      A5      D5      E5   
e|-----------------------------| 
B|-----------------------------| 
G|-7---------------7-------9---| 
D|-7-------7-------7-------9---| 
A|-5-------7-------5-------7---| 
E|---------5-------------------| 
 
Interlude:
   A5    D5  A5  D5  E5  x4 
e|--------------------| 
B|--------------------| 
G|-------7-----7--9---| 
D|-7-----7--7--7--9---| 
A|-7-----5--7--5--7---| 
E|-5--------5---------| 
 
   A5   E5   C5   D#5 x4 
e|--------------------| 
B|--------------------| 
G|------9----5----8---| 
D|-7----9----5----8---| 
A|-7----7----3----6---| 
E|-5------------------| 
 
   A5        D5        E5        A5  
e|---------------------------------------------| 
B|---------------------------------------------| 
G|-----------7-7-7-7---9-9-9-9---14-14-14-14---| 
D|-7-7-7-7---7-7-7-7---9-9-9-9---14-14-14-14---| 
A|-7-7-7-7---5-5-5-5---7-7-7-7---12-12-12-12---| 
E|-5-5-5-5-------------------------------------| 
 
   A5            D5        E5            
e|---------------------------------------------------| 
B|---------------------------------------------------| 
G|-14-14-14-14---7-7-7-7---9-9-9-9-9-9-9-9-9-9-9-9-9-| 
D|-14-14-14-14---7-7-7-7---9-9-9-9-9-9-9-9-9-9-9-9-9-| 
A|-12-12-12-12---5-5-5-5---7-7-7-7-7-7-7-7-7-7-7-7-7-| 
E|---------------------------------------------------| 
 
Bridge: 
   A5       D5       G5   D5   A5  x5 
e|---------------------------------| 
B|---------------------------------| 
G|----------7-------------7--------| 
D|-7--------7--------5----7----7---| 
A|-7--------5--------5----5----7---| 
E|-5-----------------3---------5---| 
 
Behind the first repitition of the bridge is a second guitar 
playing this: 
   A5             D5             G5    D5     A5  ( --Guitar 1)
e|-----------------------------------------------------12-12--| 
B|------------------------------------------------------------| 
G|-9-9-9-9-9-9-9--7-7-7-7-7-7-7--7/12--12/11--14-14-14--------| 
D|------------------------------------------------------------| 
A|------------------------------------------------------------| 
E|------------------------------------------------------------| 
 
End:
   A5   A5   D5      E5   E5   A5  x2 
e|---------------------------------| 
B|---------------------------------| 
G|-----------7-------9----9--------| 
D|-7----7----7-------9----9----7---| 
A|-7----7----5-------7----7----7---| 
E|-5----5----------------------5---| 
 
   A5  A5  A5  A5   
e|--------------| 
B|--------------| 
G|--------------| 
D|-7--7--7--7---| 
A|-7--7--7--7---| 
E|-5--5--5--5---| 
comments powered by Disqus
Наверх