Аккорды Green Day - Wake Me Up When September Ends

Добавлено: @romashka
Дата добавления: 28 Мая 2022г.
Рейтинг:
0.0
Просмотров: 19
Транспонировать - +
[Intro]

E|---------------|
B|------3-----3--|
G|----0-----0----|
D|--5-----5------| x4
A|---------------|
E|---------------|



[1]
    G          Bm
   Summer has come and passed
E|---------------------------|
B|------3-----3-----3-----3--|
G|----0-----0-----0-----0----|
D|--5-----5-----4-----4------|
A|---------------------------|
E|---------------------------|

    Em           G/D
The innocent can never last
E|----------------------------|
B|-------3-----3-----3-----3--|
G|-----0-----0-----0-----0----|
D|---2-----2-----0-----0------|
A|----------------------------|
E|----------------------------|

    C               Cm            G/D
   Wake me up      When September ends
E|---------------------------------------------------------------------|
B|-----5-----5----------4-----4----------3-----3----------3-----3------|
G|-----5-5---5----5---5---5---5----5-----0-0---0----0-----0-0---0----0-|
D|---5-------5--------------5----------0-------0--------0-------0------|
A|-3-------3--------3--------------------------------------------------|
E|-----------------------------------3-------3--------3-------3--------|



[2]
  G               Bm
 Like my father's come to pass
E|---------------------------|
B|------3-----3-----3-----3--|
G|----0-----0-----0-----0----|
D|--5-----5-----4-----4------|
A|---------------------------|
E|---------------------------|

    Em             G/D
   Seven years has gone so fast
E|----------------------------|
B|-------3-----3-----3-----3--|
G|-----0-----0-----0-----0----|
D|---2-----2-----0-----0------|
A|----------------------------|
E|----------------------------|

    C               Cm            G/D
   Wake me up      When September ends
E|--------------------------------------------------------------------|
B|-----5-----5----------4-----4----------3-----3----------3-------3-0-|
G|-----5-5---5----5---5---5---5----5-----0-0---0----0-----0-0-----0---|
D|---5-------5--------------5----------0-------0--------0-------0-----|
A|-3-------3--------3-------------------------------------------------|
E|-----------------------------------3-------3--------3-------2-------|



[3]
   Em             Bm
   Here comes the rain again
E|-------------------------------------|
B|------0-----0----------3-----3-------|
G|------0-0---0----------4-----4-------|
D|----2-------2----0---4---4--------4--|
A|-------------------2-------2---------|
E|--0-------0--------------------------|

   C                G/D   G5/F#
  Falling from the stars
E|-----0-----0----------------------|
B|-----1-1---1----------3-------3-0-|
G|---0-------0----0-----0-0-----0---|
D|--------------------0-------0-----|
A|-3-------3------------------------|
E|------------------3-------2-------|

   Em             Bm
  Drenched in my pain again
E|-------------------------------------|
B|------0-----0----------3-----3-------|
G|------0-0---0----------4-----4-------|
D|----2-------2----0---4---4--------4--|
A|-------------------2-------2---------|
E|--0-------0--------------------------|

     C             D
  Becoming who we are
E|------0-----0----------2-----2-------|
B|------1-1---1----------3-3---3-------|
G|----0-------0----0---2---2---2----0--|
D|-------------------0-------0---------|
A|--3-------3--------------------------|
E|-------------------------------------|

    G          Bm
    As my memory rests
E|---------------------------|
B|------3-----3-----3-----3--|
G|----0-----0-----0-----0----|
D|--5-----5-----4-----4------|
A|---------------------------|
E|---------------------------|

    Em            G/D
But never forgets what I lost
E|----------------------------|
B|-------3-----3-----3-----3--|
G|-----0-----0-----0-----0----|
D|---2-----2-----0-----0------|
A|----------------------------|
E|----------------------------|

    C               Cm            G/D
   Wake me up      When September ends
E|---------------------------------------------------------------------|
B|-----5-----5----------4-----4----------3-----3----------3-----3------|
G|-----5-5---5----5---5---5---5----5-----0-0---0----0-----0-0---0----0-|
D|---5-------5--------------5----------0-------0--------0-------0------|
A|-3-------3--------3--------------------------------------------------|
E|-----------------------------------3-------3--------3-------3--------|



[Interlude]

E|---------------|
B|------3-----3--|
G|----0-----0----|
D|--5-----5------| x6
A|---------------|
E|---------------|



[1]
    G          Bm
   Summer has come and passed
E|---------------------------|
B|------3-----3-----3-----3--|
G|----0-----0-----0-----0----|
D|--5-----5-----4-----4------|
A|---------------------------|
E|---------------------------|

    Em           G/D
The innocent can never last
E|----------------------------|
B|-------3-----3-----3-----3--|
G|-----0-----0-----0-----0----|
D|---2-----2-----0-----0------|
A|----------------------------|
E|----------------------------|

 C          Cm            G/D
Wake me up when September ends



[4]
    G          Bm
  Ring out the bells again
E|---------------------------|
B|------3-----3-----3-----3--|
G|----0-----0-----0-----0----|
D|--5-----5-----4-----4------|
A|---------------------------|
E|---------------------------|

  Em               G/D
 Like we did when spring began
E|----------------------------|
B|-------3-----3-----3-----3--|
G|-----0-----0-----0-----0----|
D|---2-----2-----0-----0------|
A|----------------------------|
E|----------------------------|

 C          Cm            G/D   G5/F#
Wake me up when September ends



[3]
 G              Bm
Here comes the rain again
 C                 G  G5/F#
Falling from the stars
  Em            Bm
Drenched in my pain again
   C             D
Becoming who we are

    G          Bm
    As my memory rests
E|---------------------------|
B|------3-----3-----3-----3--|
G|----0-----0-----0-----0----|
D|--5-----5-----4-----4------|
A|---------------------------|
E|---------------------------|

    Em            G/D
But never forgets what I lost
E|----------------------------|
B|-------3-----3-----3-----3--|
G|-----0-----0-----0-----0----|
D|---2-----2-----0-----0------|
A|----------------------------|
E|----------------------------|

 C          Cm            G/D   G5/F#
Wake me up when September ends



[Bridge]

Em(VII) Bm(VII) C(VIII) G(X) D(X)

Em(VII) Bm(VII) C(VIII) G(X) D(X) G(X) D(X)



E|---------------|
B|------3-----3--|
G|----0-----0----|
D|--5-----5------| x4
A|---------------|
E|---------------|



[1]
    G          Bm
   Summer has come and passed
E|---------------------------|
B|------3-----3-----3-----3--|
G|----0-----0-----0-----0----|
D|--5-----5-----4-----4------|
A|---------------------------|
E|---------------------------|

    Em           G/D
The innocent can never last
E|----------------------------|
B|-------3-----3-----3-----3--|
G|-----0-----0-----0-----0----|
D|---2-----2-----0-----0------|
A|----------------------------|
E|----------------------------|

 C          Cm            G/D
Wake me up when September ends



[2']
  G               Bm
 Like my father's come to pass
E|---------------------------|
B|------3-----3-----3-----3--|
G|----0-----0-----0-----0----|
D|--5-----5-----4-----4------|
A|---------------------------|
E|---------------------------|

    Em             G/D
  Twenty years has gone so fast
E|----------------------------|
B|-------3-----3-----3-----3--|
G|-----0-----0-----0-----0----|
D|---2-----2-----0-----0------|
A|----------------------------|
E|----------------------------|

 C          Cm            G/D
Wake me up when September ends  x3
Наверх