Аккорды Green Day - Blitzkreig Bop

Добавлено: @romashka
Дата добавления: 16 Марта 2013г.
Рейтинг:
0.0
Просмотров: 289
Транспонировать - +
e----------------------------
B----------------------------
G----------------------------
D-6--6-6-6-6--8-8-8-8-8-8----
A-6--6-6-6-6--8-8-8-8-8-8----
E-4--4-4-4-4--6-6-6-6-6-6----

e-----------------------
B-----------------------
G--6-6--8-8-8-8---------
D--6-6--8-8-8-8---------
A--4-4--6-6-6-6---------
E-----------------------

e------------------------------------
B------------------------------------
G--------------6-6-6--8-8-8-8-8------
D-6-6-6-6-6-6--6-6-6--8-8-8-8-8------ X2
A-6-6-6-6-6-6--4-4-4--6-6-6-6-6------
E-4-4-4-4-4-4------------------------

e---------------------------------------
B---------------------------------------
G---------------6-6-6-6-----------------
D--6-6-6-6-6-6--6-6-6-6--6-6-6-6-6-6----
A--6-6-6-6-6-6--4-4-4-4--6-6-6-6-6-6----
E--4-4-4-4-4-4-----------4-4-4-4-4-4----

e------------------------------------
B------------------------------------
G--------------6-6-6--8-8-8-8-8------
D-6-6-6-6-6-6--6-6-6--8-8-8-8-8------ X3
A-6-6-6-6-6-6--4-4-4--6-6-6-6-6------
E-4-4-4-4-4-4------------------------

e---------------------------------------
B---------------------------------------
G---------------6-6-6-6-----------------
D--6-6-6-6-6-6--6-6-6-6--6-6-6-6-6-6----
A--6-6-6-6-6-6--4-4-4-4--6-6-6-6-6-6----
E--4-4-4-4-4-4-----------4-4-4-4-4-4----

DRUMS : Hey ho, let's go Hey ho, let's go
Hey ho, let's go Hey ho, let's go


e-----------------------------------------
B------------------------------------------
G------------------------------------------
D--6-6-6-6-6-6-6-6-6-6-6-6-6-6-6-6-6-6-6---
A--6-6-6-6-6-6-6-6-6-6-6-6-6-6-6-6-6-6-6---
E--4-4-4-4-4-4-4-4-4-4-4-4-4-4-4-4-4-4-4---


e------------------------------------
B------------------------------------
G--------------6-6-6--8-8-8-8-8------
D-6-6-6-6-6-6--6-6-6--8-8-8-8-8------ X3
A-6-6-6-6-6-6--4-4-4--6-6-6-6-6------
E-4-4-4-4-4-4------------------------

e---------------------------------------
B---------------------------------------
G---------------6-6-6-6-----------------
D--6-6-6-6-6-6--6-6-6-6--6-6-6-6-6-6----
A--6-6-6-6-6-6--4-4-4-4--6-6-6-6-6-6----
E--4-4-4-4-4-4-----------4-4-4-4-4-4----

HEY HO, LETS GO, *** EM IN THE BACK NOW
e--------------------------------------
B--------------------------------------
G-6-6-6-6-6-6-6-----------6-6-6--------
D-6-6-6-6-6-6-6-6-6-6-6-6-6-6-6-6-6----
A-4-4-4-4-4-4-4-6-6-6-6-6-4-4-4-6-6----
E---------------4-4-4-4-4-------4-4----

WHAT THEY WANT, I DUNNO, THEY'RE ALL REVED UP AND READY TO GO
e----------------------------------------
B----------------------------------------
G-6-6-6-6-6-6-6-6-8-8-8-8-8-8-8-8-8------
D-6-6-6-6-6-6-6-6-8-8-8-8-8-8-8-8-8------
A-4-4-4-4-4-4-4-4-6-6-6-6-6-6-6-6-6------
E----------------------------------------


Lyrics :

Hey ho, let's go Hey ho, let's go
Hey ho, let's go Hey ho, let's go

They're forming in straight line
They're going through a tight wind
The kids are losing their minds
The Blitzkrieg Bop

They're piling in the back seat
They're generating steam heat
Pulsating to the back beat
The Blitzkrieg Bop

Hey ho, let's go
***'em in the back now
What they want, I don't know
They're all reved up and ready to go

Hey ho, let's go Hey ho, let's go
Hey ho, let's go Hey ho, let's go


Hey ho, let's go Hey ho, let's go
Hey ho, let's go Hey ho, let's go
comments powered by Disqus
Наверх