Аккорды Green Day - Brain Stew

Добавлено: @romashka
Дата добавления: 16 Марта 2013г.
Рейтинг:
0.0
Просмотров: 359
Транспонировать - +
Intro:
distorted: 0:00 - 0:38 (words come in 3rd time through)
E|----------------------------------|
B|----------------------------------|
G|----------------------------------|
D|--7-7----5-5----4-4----3-3--2-2---|
A|--7-7----5-5----4-4----3-3--2-2---|
E|--5-5----3-3----2-2----1-1--0-0---|6x
I'm...trying...sleep...
I'm... but...out
As.... by.... still....
no...
verse: (same thing with drums)
0:38 - 1:16
E|----------------------------------|
B|----------------------------------|
G|----------------------------------|
D|--7-7----5-5----4-4----3-3--2-2---|
A|--7-7----5-5----4-4----3-3--2-2---|
E|--5-5----3-3----2-2----1-1--0-0---|6x

I personally think this sounds right if you just let off the notes a little bit
instead of palm muting, kinda just let off pressure on the chord.

Chorus:
1:16 - 1:29
E|--------x---x---------x---x---------x---x-------xx-----xx--|
B|--------x---x---------x---x---------x---x-------xx-----xx--|
G|--------x---x---------x---x---------x---x-------xx-----xx--|
D|--7-7-x-x-x-x-x-5-5-x-x-x-x-x-4-4-x-x-x-x-x-3-3-xx-2-2-xx--|
A|--7-7-x-x-x-x-x-5-5-x-x-x-x-x-4-4-x-x-x-x-x-3-3-xx-2-2-xx--|
E|--5-5-x-x-x-x-x-3-3-x-x-x-x-x-2-2-x-x-x-x-x-1-1-xx-0-0-xx--|2x

Verse:
1:29 - 1:53
E|----------------------------------|
B|----------------------------------|
G|----------------------------------|
D|--7-7----5-5----4-4----3-3--2-2---|
A|--7-7----5-5----4-4----3-3--2-2---|
E|--5-5----3-3----2-2----1-1--0-0---|4x

Chorus:
1:54 - 2:06
E|--------x---x---------x---x---------x---x-------xx-----xx--|
B|--------x---x---------x---x---------x---x-------xx-----xx--|
G|--------x---x---------x---x---------x---x-------xx-----xx--|
D|--7-7-x-x-x-x-x-5-5-x-x-x-x-x-4-4-x-x-x-x-x-3-3-xx-2-2-xx--|
A|--7-7-x-x-x-x-x-5-5-x-x-x-x-x-4-4-x-x-x-x-x-3-3-xx-2-2-xx--|
E|--5-5-x-x-x-x-x-3-3-x-x-x-x-x-2-2-x-x-x-x-x-1-1-xx-0-0-xx--|2x

Verse:
2:06 - 2:31
E|------------------------------------|
B|------------------------------------|
G|------------------------------------|
D|--7-7----5-5----4-4------3-3--2-2---|
A|--7-7----5-5----4-4------3-3--2-2---|
E|--5-5----3-3----2-2/14/2-1-1--0-0---|4x

2:31 to end
E|-------------------------------------|   |----------|
B|------(0)-----(0)-----(0)------------|   |----------|
G|-------------------------------------|   |----------|
D|--7-7~----5-5~----4-4~----3-3-2-2----|   |--7-7~~---|
A|--7-7~----5-5~----4-4~----3-3-2-2----|   |--7-7~~---|
E|--5-5~----3-3~----2-2~----1-1-0-0----|6x |--5-5~~~~-|

I'm having trouble trying to sleep
I'm counting sheep but running out
As time ticks by
And still I try
No rest for crosstops in my mind

On my own... here we go

My eyes feel like they're gonna bleed
Dried up and bulging out my skull
My mouth is dry
My face is numb
F*ck*d up and spun out in my room

On my own... here we go

My mind is set on overdrive
The clock is laughing in my face
A crooked spine
My sense dulled
Passed the point of delerium

On my own... here we go

My eyes feel like they're gonna bleed
Dried up and bulging out my skull
My mouth is dry
My face is numb
F*ck*d up and spun out in my room

On my own... here we go
comments powered by Disqus
Наверх